999
FreeCAD v0.19 24276 (Git)
  0
SECTION
  2
HEADER
  9
$ACADVER
  1
AC1014
  9
$ACADMAINTVER
 70
     9
  9
$DWGCODEPAGE
  3
ANSI_1252
  9
$TEXTSTYLE
  7
STANDARD
  9
$DIMSTYLE
  2
STANDARD
  9
$DIMTXSTY
  7
STANDARD
  9
$CMLSTYLE
  2
STANDARD
  9
$PEXTMAX
 10
50
 20
50
 30
50
  9
$PEXTMIN
 10
0
 20
0
 30
0
  9
$HANDSEED
  5
FFFF
  0
ENDSEC
  0
SECTION
  2
CLASSES
  0
CLASS
  1
ACDBDICTIONARYWDFLT
  2
AcDbDictionaryWithDefault
  3
ObjectDBX Classes
 90
        0
280
     0
281
     0
  0
CLASS
  1
XRECORD
  2
AcDbXrecord
  3
ObjectDBX Classes
 90
        0
280
     0
281
     0
  0
CLASS
  1
LWPOLYLINE
  2
AcDbPolyline
  3
ObjectDBX Classes
 90
        0
280
     0
281
     1
  0
ENDSEC
  0
SECTION
  2
TABLES
  0
TABLE
  2
VPORT
  5
20
330
0
100
AcDbSymbolTable
 70
     1
  0
VPORT
  5
21
330
20
100
AcDbSymbolTableRecord
100
AcDbViewportTableRecord
  2
*ACTIVE
 70
     0
  0
ENDTAB
  0
TABLE
  2
LTYPE
  5
22
330
0
100
AcDbSymbolTable
 70
     1
  0
LTYPE
  5
23
330
21
100
AcDbSymbolTableRecord
100
AcDbLinetypeTableRecord
  2
BYBLOCK
 70
     0
  3

 72
    65
 73
     0
 40
0.0
  0
LTYPE
  5
24
330
21
100
AcDbSymbolTableRecord
100
AcDbLinetypeTableRecord
  2
BYLAYER
 70
     0
  3

 72
    65
 73
     0
 40
0.0
  0
LTYPE
  5
25
330
21
100
AcDbSymbolTableRecord
100
AcDbLinetypeTableRecord
  2
CONTINUOUS
 70
     0
  3
Solid line
 72
    65
 73
     0
 40
0.0
  0
ENDTAB
  0
TABLE
  2
LAYER
  5
DC4
330
0
100
AcDbSymbolTable
 70
12
  0
LAYER
  5
DC5
330
DC4
100
AcDbSymbolTableRecord
100
AcDbLayerTableRecord
  2
0
 70
   0
 62
   7
  6
CONTINUOUS
  0
LAYER
  5
DC6
330
DC4
100
AcDbSymbolTableRecord
100
AcDbLayerTableRecord
  2
none
 70
    0
 62
    7
  6
CONTINUOUS
  0
LAYER
  5
DC7
330
DC4
100
AcDbSymbolTableRecord
100
AcDbLayerTableRecord
  2
Shape2DView
 70
    0
 62
    7
  6
CONTINUOUS
  0
LAYER
  5
DC8
330
DC4
100
AcDbSymbolTableRecord
100
AcDbLayerTableRecord
  2
Shape2DView001
 70
    0
 62
    7
  6
CONTINUOUS
  0
LAYER
  5
DC9
330
DC4
100
AcDbSymbolTableRecord
100
AcDbLayerTableRecord
  2
Shape2DView002
 70
    0
 62
    7
  6
CONTINUOUS
  0
LAYER
  5
DCA
330
DC4
100
AcDbSymbolTableRecord
100
AcDbLayerTableRecord
  2
Shape2DView003
 70
    0
 62
    7
  6
CONTINUOUS
  0
LAYER
  5
DCB
330
DC4
100
AcDbSymbolTableRecord
100
AcDbLayerTableRecord
  2
Shape2DView004
 70
    0
 62
    7
  6
CONTINUOUS
  0
LAYER
  5
DCC
330
DC4
100
AcDbSymbolTableRecord
100
AcDbLayerTableRecord
  2
Shape2DView005
 70
    0
 62
    7
  6
CONTINUOUS
  0
LAYER
  5
DCD
330
DC4
100
AcDbSymbolTableRecord
100
AcDbLayerTableRecord
  2
Shape2DView006
 70
    0
 62
    7
  6
CONTINUOUS
  0
LAYER
  5
DCE
330
DC4
100
AcDbSymbolTableRecord
100
AcDbLayerTableRecord
  2
Shape2DView007
 70
    0
 62
    7
  6
CONTINUOUS
  0
LAYER
  5
DCF
330
DC4
100
AcDbSymbolTableRecord
100
AcDbLayerTableRecord
  2
Shape2DView008
 70
    0
 62
    7
  6
CONTINUOUS
  0
LAYER
  5
DD0
330
DC4
100
AcDbSymbolTableRecord
100
AcDbLayerTableRecord
  2
Shape2DView009
 70
    0
 62
    7
  6
CONTINUOUS
  0
ENDTAB
  0
TABLE
  2
STYLE
  5
70
330
0
100
AcDbSymbolTable
 70
     2
  0
STYLE
  5
71
330
70
100
AcDbSymbolTableRecord
100
AcDbTextStyleTableRecord
  2
STANDARD
 70
     0
 40
0.0
 41
1.0
 50
0.0
 71
     0
 42
2.5
  3
arial.ttf
  4

  0
STYLE
  5
72
330
70
100
AcDbSymbolTableRecord
100
AcDbTextStyleTableRecord
  2
ANNOTATIVE
 70
     0
 40
0.0
 41
1.0
 50
0.0
 71
     0
 42
2.5
  3
arial.ttf
  4

  0
ENDTAB
  0
TABLE
  2
VIEW
  5
73
330
0
100
AcDbSymbolTable
 70
     0
  0
ENDTAB
  0
TABLE
  2
UCS
  5
74
330
0
100
AcDbSymbolTable
 70
     0
  0
ENDTAB
  0
TABLE
  2
APPID
  5
75
330
0
100
AcDbSymbolTable
 70
     2
  0
APPID
  5
76
330
75
100
AcDbSymbolTableRecord
100
AcDbRegAppTableRecord
  2
ACAD
 70
     0
  0
APPID
  5
77
330
75
100
AcDbSymbolTableRecord
100
AcDbRegAppTableRecord
  2
ACADANNOTATIVE
 70
     0
  0
ENDTAB
  0
TABLE
  2
DIMSTYLE
  5
78
330
0
100
AcDbSymbolTable
 70
     2
  0
DIMSTYLE
105
79
330
78
100
AcDbSymbolTableRecord
100
AcDbDimStyleTableRecord
  2
STANDARD
 70
     0
  3

  4

  5

  6

  7

 40
0.0
 41
2.5
 42
0.625
 43
3.75
 44
1.25
 45
0.0
 46
0.0
 47
0.0
 48
0.0
140
2.5
141
2.5
142
0.0
143
0.03937007874016
144
1.0
145
0.0
146
1.0
147
0.625
 71
     0
 72
     0
 73
     0
 74
     0
 75
     0
 76
     0
 77
     1
 78
     8
170
     0
171
     3
172
     1
173
     0
174
     0
175
     0
176
     0
177
     0
178
     0
270
     2
271
     2
272
     2
273
     2
274
     3
340
71
275
     0
280
     0
281
     0
282
     0
283
     0
284
     8
285
     0
286
     0
287
     3
288
     0
  0
ENDTAB
  0
TABLE
  2
BLOCK_RECORD
  5
A01
330
0
100
AcDbSymbolTable
  70
5
  0
BLOCK_RECORD
  5
A02
330
A01
100
AcDbSymbolTableRecord
100
AcDbBlockTableRecord
  2
*MODEL_SPACE
  0
BLOCK_RECORD
  5
A03
330
A01
100
AcDbSymbolTableRecord
100
AcDbBlockTableRecord
  2
*PAPER_SPACE
  0
ENDTAB
  0
ENDSEC
  0
SECTION
  2
BLOCKS
  0
BLOCK
  5
A04
330
A02
100
AcDbEntity
  8
0
100
AcDbBlockBegin
  2
*MODEL_SPACE
 70
   0
 10
0
 20
0
 30
0
  3
*MODEL_SPACE
  1
 
  0
ENDBLK
  5
A05
330
A02
100
AcDbEntity
  8
0
100
AcDbBlockEnd
  0
BLOCK
  5
A06
330
A03
100
AcDbEntity
 67
1
  8
0
100
AcDbBlockBegin
  2
*PAPER_SPACE
 70
   0
 10
0
 20
0
 30
0
  3
*PAPER_SPACE
  1
 
  0
ENDBLK
  5
A07
330
A03
100
AcDbEntity
 67
    1
  8
0
100
AcDbBlockEnd
  0
ENDSEC
  0
SECTION
  2
ENTITIES
  0
LINE
  5
A08
330
A02
100
AcDbEntity
  8
Shape2DView
100
AcDbLine
 10
4
 20
4
 30
0
 11
8.1
 21
4
 31
0
  0
LINE
  5
A09
330
A02
100
AcDbEntity
  8
Shape2DView
100
AcDbLine
 10
8.1
 20
4
 30
0
 11
8.1
 21
0
 31
0
  0
LINE
  5
A0A
330
A02
100
AcDbEntity
  8
Shape2DView
100
AcDbLine
 10
4
 20
9.5
 30
0
 11
4
 21
4
 31
0
  0
LINE
  5
A0B
330
A02
100
AcDbEntity
  8
Shape2DView
100
AcDbLine
 10
13.4
 20
0
 30
0
 11
8.1
 21
0
 31
0
  0
LINE
  5
A0C
330
A02
100
AcDbEntity
  8
Shape2DView
100
AcDbLine
 10
4
 20
9.5
 30
0
 11
0
 21
9.5
 31
0
  0
LINE
  5
A0D
330
A02
100
AcDbEntity
  8
Shape2DView
100
AcDbLine
 10
13.4
 20
4
 30
0
 11
13.4
 21
0
 31
0
  0
LINE
  5
A0E
330
A02
100
AcDbEntity
  8
Shape2DView
100
AcDbLine
 10
13.4
 20
4
 30
0
 11
17.5
 21
4
 31
0
  0
LINE
  5
A0F
330
A02
100
AcDbEntity
  8
Shape2DView
100
AcDbLine
 10
17.5
 20
4
 30
0
 11
17.5
 21
134.4
 31
0
  0
LINE
  5
A10
330
A02
100
AcDbEntity
  8
Shape2DView
100
AcDbLine
 10
17.5
 20
134.4
 30
0
 11
13.4
 21
134.4
 31
0
  0
LINE
  5
A11
330
A02
100
AcDbEntity
  8
Shape2DView
100
AcDbLine
 10
8.88178e-16
 20
9.5
 30
0
 11
8.88178e-16
 21
14.8
 31
0
  0
LINE
  5
A12
330
A02
100
AcDbEntity
  8
Shape2DView
100
AcDbLine
 10
4
 20
25.8
 30
0
 11
4
 21
14.8
 31
0
  0
LINE
  5
A13
330
A02
100
AcDbEntity
  8
Shape2DView
100
AcDbLine
 10
4
 20
14.8
 30
0
 11
0
 21
14.8
 31
0
  0
LINE
  5
A14
330
A02
100
AcDbEntity
  8
Shape2DView
100
AcDbLine
 10
4
 20
25.8
 30
0
 11
0
 21
25.8
 31
0
  0
LINE
  5
A15
330
A02
100
AcDbEntity
  8
Shape2DView
100
AcDbLine
 10
8.88178e-16
 20
25.8
 30
0
 11
8.88178e-16
 21
31.1
 31
0
  0
LINE
  5
A16
330
A02
100
AcDbEntity
  8
Shape2DView
100
AcDbLine
 10
4
 20
42.1
 30
0
 11
4
 21
31.1
 31
0
  0
LINE
  5
A17
330
A02
100
AcDbEntity
  8
Shape2DView
100
AcDbLine
 10
4
 20
31.1
 30
0
 11
0
 21
31.1
 31
0
  0
LINE
  5
A18
330
A02
100
AcDbEntity
  8
Shape2DView
100
AcDbLine
 10
13.4
 20
134.4
 30
0
 11
13.4
 21
138.4
 31
0
  0
LINE
  5
A19
330
A02
100
AcDbEntity
  8
Shape2DView
100
AcDbLine
 10
4
 20
42.1
 30
0
 11
0
 21
42.1
 31
0
  0
LINE
  5
A1A
330
A02
100
AcDbEntity
  8
Shape2DView
100
AcDbLine
 10
8.1
 20
138.4
 30
0
 11
13.4
 21
138.4
 31
0
  0
LINE
  5
A1B
330
A02
100
AcDbEntity
  8
Shape2DView
100
AcDbLine
 10
8.1
 20
134.4
 30
0
 11
8.1
 21
138.4
 31
0
  0
LINE
  5
A1C
330
A02
100
AcDbEntity
  8
Shape2DView
100
AcDbLine
 10
8.1
 20
134.4
 30
0
 11
4
 21
134.4
 31
0
  0
LINE
  5
A1D
330
A02
100
AcDbEntity
  8
Shape2DView
100
AcDbLine
 10
4
 20
134.4
 30
0
 11
4
 21
128.9
 31
0
  0
LINE
  5
A1E
330
A02
100
AcDbEntity
  8
Shape2DView
100
AcDbLine
 10
8.88178e-16
 20
42.1
 30
0
 11
8.88178e-16
 21
47.4
 31
0
  0
LINE
  5
A1F
330
A02
100
AcDbEntity
  8
Shape2DView
100
AcDbLine
 10
4
 20
58.4
 30
0
 11
4
 21
47.4
 31
0
  0
LINE
  5
A20
330
A02
100
AcDbEntity
  8
Shape2DView
100
AcDbLine
 10
4
 20
47.4
 30
0
 11
0
 21
47.4
 31
0
  0
LINE
  5
A21
330
A02
100
AcDbEntity
  8
Shape2DView
100
AcDbLine
 10
4
 20
58.4
 30
0
 11
0
 21
58.4
 31
0
  0
LINE
  5
A22
330
A02
100
AcDbEntity
  8
Shape2DView
100
AcDbLine
 10
4
 20
128.9
 30
0
 11
0
 21
128.9
 31
0
  0
LINE
  5
A23
330
A02
100
AcDbEntity
  8
Shape2DView
100
AcDbLine
 10
8.88178e-16
 20
58.4
 30
0
 11
8.88178e-16
 21
63.7
 31
0
  0
LINE
  5
A24
330
A02
100
AcDbEntity
  8
Shape2DView
100
AcDbLine
 10
4
 20
74.7
 30
0
 11
4
 21
63.7
 31
0
  0
LINE
  5
A25
330
A02
100
AcDbEntity
  8
Shape2DView
100
AcDbLine
 10
4
 20
63.7
 30
0
 11
0
 21
63.7
 31
0
  0
LINE
  5
A26
330
A02
100
AcDbEntity
  8
Shape2DView
100
AcDbLine
 10
8.88178e-16
 20
123.6
 30
0
 11
8.88178e-16
 21
128.9
 31
0
  0
LINE
  5
A27
330
A02
100
AcDbEntity
  8
Shape2DView
100
AcDbLine
 10
4
 20
123.6
 30
0
 11
0
 21
123.6
 31
0
  0
LINE
  5
A28
330
A02
100
AcDbEntity
  8
Shape2DView
100
AcDbLine
 10
4
 20
123.6
 30
0
 11
4
 21
112.6
 31
0
  0
LINE
  5
A29
330
A02
100
AcDbEntity
  8
Shape2DView
100
AcDbLine
 10
4
 20
74.7
 30
0
 11
0
 21
74.7
 31
0
  0
LINE
  5
A2A
330
A02
100
AcDbEntity
  8
Shape2DView
100
AcDbLine
 10
4
 20
112.6
 30
0
 11
0
 21
112.6
 31
0
  0
LINE
  5
A2B
330
A02
100
AcDbEntity
  8
Shape2DView
100
AcDbLine
 10
8.88178e-16
 20
74.7
 30
0
 11
8.88178e-16
 21
80
 31
0
  0
LINE
  5
A2C
330
A02
100
AcDbEntity
  8
Shape2DView
100
AcDbLine
 10
4
 20
91
 30
0
 11
4
 21
80
 31
0
  0
LINE
  5
A2D
330
A02
100
AcDbEntity
  8
Shape2DView
100
AcDbLine
 10
4
 20
80
 30
0
 11
0
 21
80
 31
0
  0
LINE
  5
A2E
330
A02
100
AcDbEntity
  8
Shape2DView
100
AcDbLine
 10
8.88178e-16
 20
107.3
 30
0
 11
8.88178e-16
 21
112.6
 31
0
  0
LINE
  5
A2F
330
A02
100
AcDbEntity
  8
Shape2DView
100
AcDbLine
 10
4
 20
107.3
 30
0
 11
0
 21
107.3
 31
0
  0
LINE
  5
A30
330
A02
100
AcDbEntity
  8
Shape2DView
100
AcDbLine
 10
4
 20
107.3
 30
0
 11
4
 21
96.3
 31
0
  0
LINE
  5
A31
330
A02
100
AcDbEntity
  8
Shape2DView
100
AcDbLine
 10
4
 20
91
 30
0
 11
0
 21
91
 31
0
  0
LINE
  5
A32
330
A02
100
AcDbEntity
  8
Shape2DView
100
AcDbLine
 10
4
 20
96.3
 30
0
 11
0
 21
96.3
 31
0
  0
LINE
  5
A33
330
A02
100
AcDbEntity
  8
Shape2DView
100
AcDbLine
 10
8.88178e-16
 20
91
 30
0
 11
8.88178e-16
 21
96.3
 31
0
  0
LINE
  5
A34
330
A02
100
AcDbEntity
  8
Shape2DView
100
AcDbLine
 10
15.513
 20
99.3
 30
0
 11
12.487
 21
99.3
 31
0
  0
ARC
  5
A35
330
A02
100
AcDbEntity
  8
Shape2DView
100
AcDbCircle
 10
12.2733
 20
99.4233
 30
0
 40
0.246667
100
AcDbArc
 50
180
 51
-30
  0
ARC
  5
A36
330
A02
100
AcDbEntity
  8
Shape2DView
100
AcDbCircle
 10
12.2733
 20
99.4233
 30
0
 40
0.246667
100
AcDbArc
 50
120
 51
180
  0
LINE
  5
A37
330
A02
100
AcDbEntity
  8
Shape2DView
100
AcDbLine
 10
12.15
 20
103.963
 30
0
 11
12.15
 21
99.637
 31
0
  0
ARC
  5
A38
330
A02
100
AcDbEntity
  8
Shape2DView
100
AcDbCircle
 10
12.2733
 20
104.177
 30
0
 40
0.246667
100
AcDbArc
 50
180
 51
-120
  0
ARC
  5
A39
330
A02
100
AcDbEntity
  8
Shape2DView
100
AcDbCircle
 10
12.2733
 20
104.177
 30
0
 40
0.246667
100
AcDbArc
 50
30
 51
180
  0
LINE
  5
A3A
330
A02
100
AcDbEntity
  8
Shape2DView
100
AcDbLine
 10
15.513
 20
104.3
 30
0
 11
12.487
 21
104.3
 31
0
  0
ARC
  5
A3B
330
A02
100
AcDbEntity
  8
Shape2DView
100
AcDbCircle
 10
15.7267
 20
104.177
 30
0
 40
0.246667
100
AcDbArc
 50
-60
 51
150
  0
LINE
  5
A3C
330
A02
100
AcDbEntity
  8
Shape2DView
100
AcDbLine
 10
15.85
 20
103.963
 30
0
 11
15.85
 21
99.637
 31
0
  0
ARC
  5
A3D
330
A02
100
AcDbEntity
  8
Shape2DView
100
AcDbCircle
 10
15.7267
 20
99.4233
 30
0
 40
0.246667
100
AcDbArc
 50
-150
 51
60
  0
LINE
  5
A3E
330
A02
100
AcDbEntity
  8
Shape2DView
100
AcDbLine
 10
15.513
 20
34.1
 30
0
 11
12.487
 21
34.1
 31
0
  0
ARC
  5
A3F
330
A02
100
AcDbEntity
  8
Shape2DView
100
AcDbCircle
 10
12.2733
 20
34.2233
 30
0
 40
0.246667
100
AcDbArc
 50
180
 51
-30
  0
ARC
  5
A40
330
A02
100
AcDbEntity
  8
Shape2DView
100
AcDbCircle
 10
12.2733
 20
34.2233
 30
0
 40
0.246667
100
AcDbArc
 50
120
 51
180
  0
LINE
  5
A41
330
A02
100
AcDbEntity
  8
Shape2DView
100
AcDbLine
 10
12.15
 20
38.763
 30
0
 11
12.15
 21
34.437
 31
0
  0
ARC
  5
A42
330
A02
100
AcDbEntity
  8
Shape2DView
100
AcDbCircle
 10
12.2733
 20
38.9767
 30
0
 40
0.246667
100
AcDbArc
 50
180
 51
-120
  0
ARC
  5
A43
330
A02
100
AcDbEntity
  8
Shape2DView
100
AcDbCircle
 10
12.2733
 20
38.9767
 30
0
 40
0.246667
100
AcDbArc
 50
30
 51
180
  0
LINE
  5
A44
330
A02
100
AcDbEntity
  8
Shape2DView
100
AcDbLine
 10
15.513
 20
39.1
 30
0
 11
12.487
 21
39.1
 31
0
  0
ARC
  5
A45
330
A02
100
AcDbEntity
  8
Shape2DView
100
AcDbCircle
 10
15.7267
 20
38.9767
 30
0
 40
0.246667
100
AcDbArc
 50
-60
 51
150
  0
LINE
  5
A46
330
A02
100
AcDbEntity
  8
Shape2DView
100
AcDbLine
 10
15.85
 20
38.763
 30
0
 11
15.85
 21
34.437
 31
0
  0
ARC
  5
A47
330
A02
100
AcDbEntity
  8
Shape2DView
100
AcDbCircle
 10
15.7267
 20
34.2233
 30
0
 40
0.246667
100
AcDbArc
 50
-150
 51
60
  0
LINE
  5
A48
330
A02
100
AcDbEntity
  8
Shape2DView001
100
AcDbLine
 10
27.5
 20
4
 30
0
 11
27.5
 21
8.25
 31
0
  0
LINE
  5
A49
330
A02
100
AcDbEntity
  8
Shape2DView001
100
AcDbLine
 10
27.5
 20
8.25
 30
0
 11
30.9994
 21
8.25
 31
0
  0
LINE
  5
A4A
330
A02
100
AcDbEntity
  8
Shape2DView001
100
AcDbLine
 10
33.27
 20
4
 30
0
 11
27.5
 21
4
 31
0
  0
LINE
  5
A4B
330
A02
100
AcDbEntity
  8
Shape2DView001
100
AcDbLine
 10
33.27
 20
4
 30
0
 11
33.27
 21
0
 31
0
  0
LINE
  5
A4C
330
A02
100
AcDbEntity
  8
Shape2DView001
100
AcDbLine
 10
33.27
 20
8.88178e-16
 30
0
 11
38.57
 21
8.88178e-16
 31
0
  0
LINE
  5
A4D
330
A02
100
AcDbEntity
  8
Shape2DView001
100
AcDbLine
 10
50.11
 20
4
 30
0
 11
38.57
 21
4
 31
0
  0
LINE
  5
A4E
330
A02
100
AcDbEntity
  8
Shape2DView001
100
AcDbLine
 10
38.57
 20
4
 30
0
 11
38.57
 21
0
 31
0
  0
LINE
  5
A4F
330
A02
100
AcDbEntity
  8
Shape2DView001
100
AcDbLine
 10
50.11
 20
4
 30
0
 11
50.11
 21
0
 31
0
  0
LINE
  5
A50
330
A02
100
AcDbEntity
  8
Shape2DView001
100
AcDbLine
 10
50.11
 20
8.88178e-16
 30
0
 11
55.41
 21
8.88178e-16
 31
0
  0
LINE
  5
A51
330
A02
100
AcDbEntity
  8
Shape2DView001
100
AcDbLine
 10
66.95
 20
4
 30
0
 11
55.41
 21
4
 31
0
  0
LINE
  5
A52
330
A02
100
AcDbEntity
  8
Shape2DView001
100
AcDbLine
 10
55.41
 20
4
 30
0
 11
55.41
 21
0
 31
0
  0
LINE
  5
A53
330
A02
100
AcDbEntity
  8
Shape2DView001
100
AcDbLine
 10
66.95
 20
4
 30
0
 11
66.95
 21
0
 31
0
  0
LINE
  5
A54
330
A02
100
AcDbEntity
  8
Shape2DView001
100
AcDbLine
 10
66.95
 20
8.88178e-16
 30
0
 11
72.25
 21
8.88178e-16
 31
0
  0
LINE
  5
A55
330
A02
100
AcDbEntity
  8
Shape2DView001
100
AcDbLine
 10
83.79
 20
4
 30
0
 11
72.25
 21
4
 31
0
  0
LINE
  5
A56
330
A02
100
AcDbEntity
  8
Shape2DView001
100
AcDbLine
 10
72.25
 20
4
 30
0
 11
72.25
 21
0
 31
0
  0
LINE
  5
A57
330
A02
100
AcDbEntity
  8
Shape2DView001
100
AcDbLine
 10
83.79
 20
4
 30
0
 11
83.79
 21
0
 31
0
  0
LINE
  5
A58
330
A02
100
AcDbEntity
  8
Shape2DView001
100
AcDbLine
 10
83.79
 20
8.88178e-16
 30
0
 11
89.09
 21
8.88178e-16
 31
0
  0
LINE
  5
A59
330
A02
100
AcDbEntity
  8
Shape2DView001
100
AcDbLine
 10
100.63
 20
4
 30
0
 11
89.09
 21
4
 31
0
  0
LINE
  5
A5A
330
A02
100
AcDbEntity
  8
Shape2DView001
100
AcDbLine
 10
89.09
 20
4
 30
0
 11
89.09
 21
0
 31
0
  0
LINE
  5
A5B
330
A02
100
AcDbEntity
  8
Shape2DView001
100
AcDbLine
 10
100.63
 20
4
 30
0
 11
100.63
 21
0
 31
0
  0
LINE
  5
A5C
330
A02
100
AcDbEntity
  8
Shape2DView001
100
AcDbLine
 10
100.63
 20
8.88178e-16
 30
0
 11
105.93
 21
8.88178e-16
 31
0
  0
LINE
  5
A5D
330
A02
100
AcDbEntity
  8
Shape2DView001
100
AcDbLine
 10
117.47
 20
4
 30
0
 11
105.93
 21
4
 31
0
  0
LINE
  5
A5E
330
A02
100
AcDbEntity
  8
Shape2DView001
100
AcDbLine
 10
105.93
 20
4
 30
0
 11
105.93
 21
0
 31
0
  0
LINE
  5
A5F
330
A02
100
AcDbEntity
  8
Shape2DView001
100
AcDbLine
 10
117.47
 20
4
 30
0
 11
117.47
 21
0
 31
0
  0
LINE
  5
A60
330
A02
100
AcDbEntity
  8
Shape2DView001
100
AcDbLine
 10
117.47
 20
8.88178e-16
 30
0
 11
122.77
 21
8.88178e-16
 31
0
  0
LINE
  5
A61
330
A02
100
AcDbEntity
  8
Shape2DView001
100
AcDbLine
 10
134.31
 20
4
 30
0
 11
122.77
 21
4
 31
0
  0
LINE
  5
A62
330
A02
100
AcDbEntity
  8
Shape2DView001
100
AcDbLine
 10
122.77
 20
4
 30
0
 11
122.77
 21
0
 31
0
  0
LINE
  5
A63
330
A02
100
AcDbEntity
  8
Shape2DView001
100
AcDbLine
 10
134.31
 20
4
 30
0
 11
134.31
 21
0
 31
0
  0
LINE
  5
A64
330
A02
100
AcDbEntity
  8
Shape2DView001
100
AcDbLine
 10
134.31
 20
8.88178e-16
 30
0
 11
139.61
 21
8.88178e-16
 31
0
  0
LINE
  5
A65
330
A02
100
AcDbEntity
  8
Shape2DView001
100
AcDbLine
 10
151.15
 20
4
 30
0
 11
139.61
 21
4
 31
0
  0
LINE
  5
A66
330
A02
100
AcDbEntity
  8
Shape2DView001
100
AcDbLine
 10
139.61
 20
4
 30
0
 11
139.61
 21
0
 31
0
  0
LINE
  5
A67
330
A02
100
AcDbEntity
  8
Shape2DView001
100
AcDbLine
 10
151.15
 20
4
 30
0
 11
151.15
 21
0
 31
0
  0
LINE
  5
A68
330
A02
100
AcDbEntity
  8
Shape2DView001
100
AcDbLine
 10
151.15
 20
8.88178e-16
 30
0
 11
156.45
 21
8.88178e-16
 31
0
  0
LINE
  5
A69
330
A02
100
AcDbEntity
  8
Shape2DView001
100
AcDbLine
 10
167.99
 20
4
 30
0
 11
156.45
 21
4
 31
0
  0
LINE
  5
A6A
330
A02
100
AcDbEntity
  8
Shape2DView001
100
AcDbLine
 10
156.45
 20
4
 30
0
 11
156.45
 21
0
 31
0
  0
LINE
  5
A6B
330
A02
100
AcDbEntity
  8
Shape2DView001
100
AcDbLine
 10
167.99
 20
4
 30
0
 11
167.99
 21
0
 31
0
  0
LINE
  5
A6C
330
A02
100
AcDbEntity
  8
Shape2DView001
100
AcDbLine
 10
167.99
 20
8.88178e-16
 30
0
 11
173.29
 21
8.88178e-16
 31
0
  0
LINE
  5
A6D
330
A02
100
AcDbEntity
  8
Shape2DView001
100
AcDbLine
 10
184.83
 20
4
 30
0
 11
173.29
 21
4
 31
0
  0
LINE
  5
A6E
330
A02
100
AcDbEntity
  8
Shape2DView001
100
AcDbLine
 10
173.29
 20
4
 30
0
 11
173.29
 21
0
 31
0
  0
LINE
  5
A6F
330
A02
100
AcDbEntity
  8
Shape2DView001
100
AcDbLine
 10
184.83
 20
4
 30
0
 11
184.83
 21
0
 31
0
  0
LINE
  5
A70
330
A02
100
AcDbEntity
  8
Shape2DView001
100
AcDbLine
 10
184.83
 20
8.88178e-16
 30
0
 11
190.13
 21
8.88178e-16
 31
0
  0
LINE
  5
A71
330
A02
100
AcDbEntity
  8
Shape2DView001
100
AcDbLine
 10
195.9
 20
4
 30
0
 11
190.13
 21
4
 31
0
  0
LINE
  5
A72
330
A02
100
AcDbEntity
  8
Shape2DView001
100
AcDbLine
 10
195.9
 20
8.25
 30
0
 11
195.9
 21
4
 31
0
  0
LINE
  5
A73
330
A02
100
AcDbEntity
  8
Shape2DView001
100
AcDbLine
 10
192.401
 20
8.25
 30
0
 11
195.9
 21
8.25
 31
0
  0
ARC
  5
A74
330
A02
100
AcDbEntity
  8
Shape2DView001
100
AcDbCircle
 10
192.178
 20
8.37833
 30
0
 40
0.256667
100
AcDbArc
 50
120
 51
-30
  0
LINE
  5
A75
330
A02
100
AcDbEntity
  8
Shape2DView001
100
AcDbLine
 10
192.05
 20
8.60061
 30
0
 11
192.05
 21
12.8994
 31
0
  0
ARC
  5
A76
330
A02
100
AcDbEntity
  8
Shape2DView001
100
AcDbCircle
 10
192.178
 20
13.1217
 30
0
 40
0.256667
100
AcDbArc
 50
30
 51
-120
  0
LINE
  5
A77
330
A02
100
AcDbEntity
  8
Shape2DView001
100
AcDbLine
 10
192.401
 20
13.25
 30
0
 11
195.9
 21
13.25
 31
0
  0
LINE
  5
A78
330
A02
100
AcDbEntity
  8
Shape2DView001
100
AcDbLine
 10
195.9
 20
17.5
 30
0
 11
195.9
 21
13.25
 31
0
  0
LINE
  5
A79
330
A02
100
AcDbEntity
  8
Shape2DView001
100
AcDbLine
 10
27.5
 20
17.5
 30
0
 11
195.9
 21
17.5
 31
0
  0
LINE
  5
A7A
330
A02
100
AcDbEntity
  8
Shape2DView001
100
AcDbLine
 10
27.5
 20
13.25
 30
0
 11
27.5
 21
17.5
 31
0
  0
LINE
  5
A7B
330
A02
100
AcDbEntity
  8
Shape2DView001
100
AcDbLine
 10
27.5
 20
13.25
 30
0
 11
30.9994
 21
13.25
 31
0
  0
LINE
  5
A7C
330
A02
100
AcDbEntity
  8
Shape2DView001
100
AcDbLine
 10
190.13
 20
4
 30
0
 11
190.13
 21
0
 31
0
  0
ARC
  5
A7D
330
A02
100
AcDbEntity
  8
Shape2DView001
100
AcDbCircle
 10
31.2217
 20
13.1217
 30
0
 40
0.256667
100
AcDbArc
 50
0
 51
150
  0
ARC
  5
A7E
330
A02
100
AcDbEntity
  8
Shape2DView001
100
AcDbCircle
 10
31.2217
 20
13.1217
 30
0
 40
0.256667
100
AcDbArc
 50
-60
 51
0
  0
LINE
  5
A7F
330
A02
100
AcDbEntity
  8
Shape2DView001
100
AcDbLine
 10
31.35
 20
8.60061
 30
0
 11
31.35
 21
12.8994
 31
0
  0
ARC
  5
A80
330
A02
100
AcDbEntity
  8
Shape2DView001
100
AcDbCircle
 10
31.2217
 20
8.37833
 30
0
 40
0.256667
100
AcDbArc
 50
0
 51
60
  0
ARC
  5
A81
330
A02
100
AcDbEntity
  8
Shape2DView001
100
AcDbCircle
 10
31.2217
 20
8.37833
 30
0
 40
0.256667
100
AcDbArc
 50
-150
 51
0
  0
ARC
  5
A82
330
A02
100
AcDbEntity
  8
Shape2DView001
100
AcDbCircle
 10
60.61
 20
12.2733
 30
0
 40
0.246667
100
AcDbArc
 50
-90
 51
60
  0
ARC
  5
A83
330
A02
100
AcDbEntity
  8
Shape2DView001
100
AcDbCircle
 10
60.61
 20
12.2733
 30
0
 40
0.246667
100
AcDbArc
 50
-150
 51
-90
  0
LINE
  5
A84
330
A02
100
AcDbEntity
  8
Shape2DView001
100
AcDbLine
 10
56.0703
 20
12.15
 30
0
 11
60.3964
 21
12.15
 31
0
  0
ARC
  5
A85
330
A02
100
AcDbEntity
  8
Shape2DView001
100
AcDbCircle
 10
55.8567
 20
12.2733
 30
0
 40
0.246667
100
AcDbArc
 50
-90
 51
-30
  0
ARC
  5
A86
330
A02
100
AcDbEntity
  8
Shape2DView001
100
AcDbCircle
 10
55.8567
 20
12.2733
 30
0
 40
0.246667
100
AcDbArc
 50
120
 51
-90
  0
LINE
  5
A87
330
A02
100
AcDbEntity
  8
Shape2DView001
100
AcDbLine
 10
55.7333
 20
15.513
 30
0
 11
55.7333
 21
12.487
 31
0
  0
ARC
  5
A88
330
A02
100
AcDbEntity
  8
Shape2DView001
100
AcDbCircle
 10
55.8567
 20
15.7267
 30
0
 40
0.246667
100
AcDbArc
 50
30
 51
-120
  0
LINE
  5
A89
330
A02
100
AcDbEntity
  8
Shape2DView001
100
AcDbLine
 10
56.0703
 20
15.85
 30
0
 11
60.3964
 21
15.85
 31
0
  0
ARC
  5
A8A
330
A02
100
AcDbEntity
  8
Shape2DView001
100
AcDbCircle
 10
60.61
 20
15.7267
 30
0
 40
0.246667
100
AcDbArc
 50
-60
 51
150
  0
LINE
  5
A8B
330
A02
100
AcDbEntity
  8
Shape2DView001
100
AcDbLine
 10
60.7333
 20
15.513
 30
0
 11
60.7333
 21
12.487
 31
0
  0
ARC
  5
A8C
330
A02
100
AcDbEntity
  8
Shape2DView001
100
AcDbCircle
 10
167.543
 20
12.2733
 30
0
 40
0.246667
100
AcDbArc
 50
-90
 51
60
  0
ARC
  5
A8D
330
A02
100
AcDbEntity
  8
Shape2DView001
100
AcDbCircle
 10
167.543
 20
12.2733
 30
0
 40
0.246667
100
AcDbArc
 50
-150
 51
-90
  0
LINE
  5
A8E
330
A02
100
AcDbEntity
  8
Shape2DView001
100
AcDbLine
 10
163.004
 20
12.15
 30
0
 11
167.33
 21
12.15
 31
0
  0
ARC
  5
A8F
330
A02
100
AcDbEntity
  8
Shape2DView001
100
AcDbCircle
 10
162.79
 20
12.2733
 30
0
 40
0.246667
100
AcDbArc
 50
-90
 51
-30
  0
ARC
  5
A90
330
A02
100
AcDbEntity
  8
Shape2DView001
100
AcDbCircle
 10
162.79
 20
12.2733
 30
0
 40
0.246667
100
AcDbArc
 50
120
 51
-90
  0
LINE
  5
A91
330
A02
100
AcDbEntity
  8
Shape2DView001
100
AcDbLine
 10
162.667
 20
15.513
 30
0
 11
162.667
 21
12.487
 31
0
  0
ARC
  5
A92
330
A02
100
AcDbEntity
  8
Shape2DView001
100
AcDbCircle
 10
162.79
 20
15.7267
 30
0
 40
0.246667
100
AcDbArc
 50
30
 51
-120
  0
LINE
  5
A93
330
A02
100
AcDbEntity
  8
Shape2DView001
100
AcDbLine
 10
163.004
 20
15.85
 30
0
 11
167.33
 21
15.85
 31
0
  0
ARC
  5
A94
330
A02
100
AcDbEntity
  8
Shape2DView001
100
AcDbCircle
 10
167.543
 20
15.7267
 30
0
 40
0.246667
100
AcDbArc
 50
-60
 51
150
  0
LINE
  5
A95
330
A02
100
AcDbEntity
  8
Shape2DView001
100
AcDbLine
 10
167.667
 20
15.513
 30
0
 11
167.667
 21
12.487
 31
0
  0
ARC
  5
A96
330
A02
100
AcDbEntity
  8
Shape2DView001
100
AcDbCircle
 10
114.077
 20
12.2733
 30
0
 40
0.246667
100
AcDbArc
 50
-90
 51
60
  0
ARC
  5
A97
330
A02
100
AcDbEntity
  8
Shape2DView001
100
AcDbCircle
 10
114.077
 20
12.2733
 30
0
 40
0.246667
100
AcDbArc
 50
-150
 51
-90
  0
LINE
  5
A98
330
A02
100
AcDbEntity
  8
Shape2DView001
100
AcDbLine
 10
109.537
 20
12.15
 30
0
 11
113.863
 21
12.15
 31
0
  0
ARC
  5
A99
330
A02
100
AcDbEntity
  8
Shape2DView001
100
AcDbCircle
 10
109.323
 20
12.2733
 30
0
 40
0.246667
100
AcDbArc
 50
-90
 51
-30
  0
ARC
  5
A9A
330
A02
100
AcDbEntity
  8
Shape2DView001
100
AcDbCircle
 10
109.323
 20
12.2733
 30
0
 40
0.246667
100
AcDbArc
 50
120
 51
-90
  0
LINE
  5
A9B
330
A02
100
AcDbEntity
  8
Shape2DView001
100
AcDbLine
 10
109.2
 20
15.513
 30
0
 11
109.2
 21
12.487
 31
0
  0
ARC
  5
A9C
330
A02
100
AcDbEntity
  8
Shape2DView001
100
AcDbCircle
 10
109.323
 20
15.7267
 30
0
 40
0.246667
100
AcDbArc
 50
30
 51
-120
  0
LINE
  5
A9D
330
A02
100
AcDbEntity
  8
Shape2DView001
100
AcDbLine
 10
109.537
 20
15.85
 30
0
 11
113.863
 21
15.85
 31
0
  0
ARC
  5
A9E
330
A02
100
AcDbEntity
  8
Shape2DView001
100
AcDbCircle
 10
114.077
 20
15.7267
 30
0
 40
0.246667
100
AcDbArc
 50
-60
 51
150
  0
LINE
  5
A9F
330
A02
100
AcDbEntity
  8
Shape2DView001
100
AcDbLine
 10
114.2
 20
15.513
 30
0
 11
114.2
 21
12.487
 31
0
  0
LINE
  5
AA0
330
A02
100
AcDbEntity
  8
Shape2DView002
100
AcDbLine
 10
374.3
 20
0
 30
0
 11
374.3
 21
9.65
 31
0
  0
LINE
  5
AA1
330
A02
100
AcDbEntity
  8
Shape2DView002
100
AcDbLine
 10
368.38
 20
0
 30
0
 11
374.3
 21
0
 31
0
  0
LINE
  5
AA2
330
A02
100
AcDbEntity
  8
Shape2DView002
100
AcDbLine
 10
368.38
 20
3.49939
 30
0
 11
368.38
 21
0
 31
0
  0
ARC
  5
AA3
330
A02
100
AcDbEntity
  8
Shape2DView002
100
AcDbCircle
 10
368.252
 20
3.72167
 30
0
 40
0.256667
100
AcDbArc
 50
-60
 51
150
  0
LINE
  5
AA4
330
A02
100
AcDbEntity
  8
Shape2DView002
100
AcDbLine
 10
368.029
 20
3.85
 30
0
 11
363.731
 21
3.85
 31
0
  0
ARC
  5
AA5
330
A02
100
AcDbEntity
  8
Shape2DView002
100
AcDbCircle
 10
363.508
 20
3.72167
 30
0
 40
0.256667
100
AcDbArc
 50
30
 51
-120
  0
LINE
  5
AA6
330
A02
100
AcDbEntity
  8
Shape2DView002
100
AcDbLine
 10
363.38
 20
3.49939
 30
0
 11
363.38
 21
0
 31
0
  0
LINE
  5
AA7
330
A02
100
AcDbEntity
  8
Shape2DView002
100
AcDbLine
 10
351.54
 20
0
 30
0
 11
363.38
 21
0
 31
0
  0
LINE
  5
AA8
330
A02
100
AcDbEntity
  8
Shape2DView002
100
AcDbLine
 10
351.54
 20
3.49939
 30
0
 11
351.54
 21
0
 31
0
  0
ARC
  5
AA9
330
A02
100
AcDbEntity
  8
Shape2DView002
100
AcDbCircle
 10
351.412
 20
3.72167
 30
0
 40
0.256667
100
AcDbArc
 50
-60
 51
150
  0
LINE
  5
AAA
330
A02
100
AcDbEntity
  8
Shape2DView002
100
AcDbLine
 10
351.189
 20
3.85
 30
0
 11
346.891
 21
3.85
 31
0
  0
ARC
  5
AAB
330
A02
100
AcDbEntity
  8
Shape2DView002
100
AcDbCircle
 10
346.668
 20
3.72167
 30
0
 40
0.256667
100
AcDbArc
 50
30
 51
-120
  0
LINE
  5
AAC
330
A02
100
AcDbEntity
  8
Shape2DView002
100
AcDbLine
 10
346.54
 20
3.49939
 30
0
 11
346.54
 21
0
 31
0
  0
LINE
  5
AAD
330
A02
100
AcDbEntity
  8
Shape2DView002
100
AcDbLine
 10
334.7
 20
0
 30
0
 11
346.54
 21
0
 31
0
  0
LINE
  5
AAE
330
A02
100
AcDbEntity
  8
Shape2DView002
100
AcDbLine
 10
334.7
 20
3.49939
 30
0
 11
334.7
 21
0
 31
0
  0
ARC
  5
AAF
330
A02
100
AcDbEntity
  8
Shape2DView002
100
AcDbCircle
 10
334.572
 20
3.72167
 30
0
 40
0.256667
100
AcDbArc
 50
-60
 51
150
  0
LINE
  5
AB0
330
A02
100
AcDbEntity
  8
Shape2DView002
100
AcDbLine
 10
334.349
 20
3.85
 30
0
 11
330.051
 21
3.85
 31
0
  0
ARC
  5
AB1
330
A02
100
AcDbEntity
  8
Shape2DView002
100
AcDbCircle
 10
329.828
 20
3.72167
 30
0
 40
0.256667
100
AcDbArc
 50
30
 51
-120
  0
LINE
  5
AB2
330
A02
100
AcDbEntity
  8
Shape2DView002
100
AcDbLine
 10
329.7
 20
3.49939
 30
0
 11
329.7
 21
0
 31
0
  0
LINE
  5
AB3
330
A02
100
AcDbEntity
  8
Shape2DView002
100
AcDbLine
 10
317.86
 20
0
 30
0
 11
329.7
 21
0
 31
0
  0
LINE
  5
AB4
330
A02
100
AcDbEntity
  8
Shape2DView002
100
AcDbLine
 10
317.86
 20
3.49939
 30
0
 11
317.86
 21
0
 31
0
  0
ARC
  5
AB5
330
A02
100
AcDbEntity
  8
Shape2DView002
100
AcDbCircle
 10
317.732
 20
3.72167
 30
0
 40
0.256667
100
AcDbArc
 50
-60
 51
150
  0
LINE
  5
AB6
330
A02
100
AcDbEntity
  8
Shape2DView002
100
AcDbLine
 10
317.509
 20
3.85
 30
0
 11
313.211
 21
3.85
 31
0
  0
ARC
  5
AB7
330
A02
100
AcDbEntity
  8
Shape2DView002
100
AcDbCircle
 10
312.988
 20
3.72167
 30
0
 40
0.256667
100
AcDbArc
 50
30
 51
-120
  0
LINE
  5
AB8
330
A02
100
AcDbEntity
  8
Shape2DView002
100
AcDbLine
 10
312.86
 20
3.49939
 30
0
 11
312.86
 21
0
 31
0
  0
LINE
  5
AB9
330
A02
100
AcDbEntity
  8
Shape2DView002
100
AcDbLine
 10
301.02
 20
0
 30
0
 11
312.86
 21
0
 31
0
  0
LINE
  5
ABA
330
A02
100
AcDbEntity
  8
Shape2DView002
100
AcDbLine
 10
301.02
 20
3.49939
 30
0
 11
301.02
 21
0
 31
0
  0
ARC
  5
ABB
330
A02
100
AcDbEntity
  8
Shape2DView002
100
AcDbCircle
 10
300.892
 20
3.72167
 30
0
 40
0.256667
100
AcDbArc
 50
-60
 51
150
  0
LINE
  5
ABC
330
A02
100
AcDbEntity
  8
Shape2DView002
100
AcDbLine
 10
300.669
 20
3.85
 30
0
 11
296.371
 21
3.85
 31
0
  0
ARC
  5
ABD
330
A02
100
AcDbEntity
  8
Shape2DView002
100
AcDbCircle
 10
296.148
 20
3.72167
 30
0
 40
0.256667
100
AcDbArc
 50
30
 51
-120
  0
LINE
  5
ABE
330
A02
100
AcDbEntity
  8
Shape2DView002
100
AcDbLine
 10
296.02
 20
3.49939
 30
0
 11
296.02
 21
0
 31
0
  0
LINE
  5
ABF
330
A02
100
AcDbEntity
  8
Shape2DView002
100
AcDbLine
 10
284.18
 20
0
 30
0
 11
296.02
 21
0
 31
0
  0
LINE
  5
AC0
330
A02
100
AcDbEntity
  8
Shape2DView002
100
AcDbLine
 10
284.18
 20
3.49939
 30
0
 11
284.18
 21
0
 31
0
  0
ARC
  5
AC1
330
A02
100
AcDbEntity
  8
Shape2DView002
100
AcDbCircle
 10
284.052
 20
3.72167
 30
0
 40
0.256667
100
AcDbArc
 50
-60
 51
150
  0
LINE
  5
AC2
330
A02
100
AcDbEntity
  8
Shape2DView002
100
AcDbLine
 10
283.829
 20
3.85
 30
0
 11
279.531
 21
3.85
 31
0
  0
ARC
  5
AC3
330
A02
100
AcDbEntity
  8
Shape2DView002
100
AcDbCircle
 10
279.308
 20
3.72167
 30
0
 40
0.256667
100
AcDbArc
 50
30
 51
-120
  0
LINE
  5
AC4
330
A02
100
AcDbEntity
  8
Shape2DView002
100
AcDbLine
 10
279.18
 20
3.49939
 30
0
 11
279.18
 21
0
 31
0
  0
LINE
  5
AC5
330
A02
100
AcDbEntity
  8
Shape2DView002
100
AcDbLine
 10
267.34
 20
0
 30
0
 11
279.18
 21
0
 31
0
  0
LINE
  5
AC6
330
A02
100
AcDbEntity
  8
Shape2DView002
100
AcDbLine
 10
267.34
 20
3.49939
 30
0
 11
267.34
 21
0
 31
0
  0
ARC
  5
AC7
330
A02
100
AcDbEntity
  8
Shape2DView002
100
AcDbCircle
 10
267.212
 20
3.72167
 30
0
 40
0.256667
100
AcDbArc
 50
-60
 51
150
  0
LINE
  5
AC8
330
A02
100
AcDbEntity
  8
Shape2DView002
100
AcDbLine
 10
266.989
 20
3.85
 30
0
 11
262.691
 21
3.85
 31
0
  0
ARC
  5
AC9
330
A02
100
AcDbEntity
  8
Shape2DView002
100
AcDbCircle
 10
262.468
 20
3.72167
 30
0
 40
0.256667
100
AcDbArc
 50
30
 51
-120
  0
LINE
  5
ACA
330
A02
100
AcDbEntity
  8
Shape2DView002
100
AcDbLine
 10
262.34
 20
3.49939
 30
0
 11
262.34
 21
0
 31
0
  0
LINE
  5
ACB
330
A02
100
AcDbEntity
  8
Shape2DView002
100
AcDbLine
 10
250.5
 20
0
 30
0
 11
262.34
 21
0
 31
0
  0
LINE
  5
ACC
330
A02
100
AcDbEntity
  8
Shape2DView002
100
AcDbLine
 10
250.5
 20
3.49939
 30
0
 11
250.5
 21
0
 31
0
  0
ARC
  5
ACD
330
A02
100
AcDbEntity
  8
Shape2DView002
100
AcDbCircle
 10
250.372
 20
3.72167
 30
0
 40
0.256667
100
AcDbArc
 50
-60
 51
150
  0
LINE
  5
ACE
330
A02
100
AcDbEntity
  8
Shape2DView002
100
AcDbLine
 10
250.149
 20
3.85
 30
0
 11
245.851
 21
3.85
 31
0
  0
ARC
  5
ACF
330
A02
100
AcDbEntity
  8
Shape2DView002
100
AcDbCircle
 10
245.628
 20
3.72167
 30
0
 40
0.256667
100
AcDbArc
 50
30
 51
-120
  0
LINE
  5
AD0
330
A02
100
AcDbEntity
  8
Shape2DView002
100
AcDbLine
 10
245.5
 20
3.49939
 30
0
 11
245.5
 21
0
 31
0
  0
LINE
  5
AD1
330
A02
100
AcDbEntity
  8
Shape2DView002
100
AcDbLine
 10
233.66
 20
0
 30
0
 11
245.5
 21
0
 31
0
  0
LINE
  5
AD2
330
A02
100
AcDbEntity
  8
Shape2DView002
100
AcDbLine
 10
233.66
 20
3.49939
 30
0
 11
233.66
 21
0
 31
0
  0
ARC
  5
AD3
330
A02
100
AcDbEntity
  8
Shape2DView002
100
AcDbCircle
 10
233.532
 20
3.72167
 30
0
 40
0.256667
100
AcDbArc
 50
-60
 51
150
  0
LINE
  5
AD4
330
A02
100
AcDbEntity
  8
Shape2DView002
100
AcDbLine
 10
233.309
 20
3.85
 30
0
 11
229.011
 21
3.85
 31
0
  0
ARC
  5
AD5
330
A02
100
AcDbEntity
  8
Shape2DView002
100
AcDbCircle
 10
228.788
 20
3.72167
 30
0
 40
0.256667
100
AcDbArc
 50
30
 51
-120
  0
LINE
  5
AD6
330
A02
100
AcDbEntity
  8
Shape2DView002
100
AcDbLine
 10
228.66
 20
3.49939
 30
0
 11
228.66
 21
0
 31
0
  0
LINE
  5
AD7
330
A02
100
AcDbEntity
  8
Shape2DView002
100
AcDbLine
 10
216.82
 20
0
 30
0
 11
228.66
 21
0
 31
0
  0
LINE
  5
AD8
330
A02
100
AcDbEntity
  8
Shape2DView002
100
AcDbLine
 10
216.82
 20
3.49939
 30
0
 11
216.82
 21
0
 31
0
  0
ARC
  5
AD9
330
A02
100
AcDbEntity
  8
Shape2DView002
100
AcDbCircle
 10
216.692
 20
3.72167
 30
0
 40
0.256667
100
AcDbArc
 50
-60
 51
150
  0
LINE
  5
ADA
330
A02
100
AcDbEntity
  8
Shape2DView002
100
AcDbLine
 10
216.469
 20
3.85
 30
0
 11
212.171
 21
3.85
 31
0
  0
ARC
  5
ADB
330
A02
100
AcDbEntity
  8
Shape2DView002
100
AcDbCircle
 10
211.948
 20
3.72167
 30
0
 40
0.256667
100
AcDbArc
 50
30
 51
-120
  0
LINE
  5
ADC
330
A02
100
AcDbEntity
  8
Shape2DView002
100
AcDbLine
 10
211.82
 20
3.49939
 30
0
 11
211.82
 21
0
 31
0
  0
LINE
  5
ADD
330
A02
100
AcDbEntity
  8
Shape2DView002
100
AcDbLine
 10
205.9
 20
0
 30
0
 11
211.82
 21
0
 31
0
  0
LINE
  5
ADE
330
A02
100
AcDbEntity
  8
Shape2DView002
100
AcDbLine
 10
205.9
 20
9.65
 30
0
 11
205.9
 21
0
 31
0
  0
LINE
  5
ADF
330
A02
100
AcDbEntity
  8
Shape2DView002
100
AcDbLine
 10
209.399
 20
9.65
 30
0
 11
205.9
 21
9.65
 31
0
  0
ARC
  5
AE0
330
A02
100
AcDbEntity
  8
Shape2DView002
100
AcDbCircle
 10
209.622
 20
9.77833
 30
0
 40
0.256667
100
AcDbArc
 50
-150
 51
60
  0
LINE
  5
AE1
330
A02
100
AcDbEntity
  8
Shape2DView002
100
AcDbLine
 10
209.75
 20
10.0006
 30
0
 11
209.75
 21
14.2994
 31
0
  0
ARC
  5
AE2
330
A02
100
AcDbEntity
  8
Shape2DView002
100
AcDbCircle
 10
209.622
 20
14.5217
 30
0
 40
0.256667
100
AcDbArc
 50
-60
 51
150
  0
LINE
  5
AE3
330
A02
100
AcDbEntity
  8
Shape2DView002
100
AcDbLine
 10
209.399
 20
14.65
 30
0
 11
205.9
 21
14.65
 31
0
  0
LINE
  5
AE4
330
A02
100
AcDbEntity
  8
Shape2DView002
100
AcDbLine
 10
205.9
 20
25.95
 30
0
 11
205.9
 21
14.65
 31
0
  0
LINE
  5
AE5
330
A02
100
AcDbEntity
  8
Shape2DView002
100
AcDbLine
 10
209.399
 20
25.95
 30
0
 11
205.9
 21
25.95
 31
0
  0
ARC
  5
AE6
330
A02
100
AcDbEntity
  8
Shape2DView002
100
AcDbCircle
 10
209.622
 20
26.0783
 30
0
 40
0.256667
100
AcDbArc
 50
-150
 51
60
  0
LINE
  5
AE7
330
A02
100
AcDbEntity
  8
Shape2DView002
100
AcDbLine
 10
209.75
 20
26.3006
 30
0
 11
209.75
 21
30.5994
 31
0
  0
ARC
  5
AE8
330
A02
100
AcDbEntity
  8
Shape2DView002
100
AcDbCircle
 10
209.622
 20
30.8217
 30
0
 40
0.256667
100
AcDbArc
 50
-60
 51
150
  0
LINE
  5
AE9
330
A02
100
AcDbEntity
  8
Shape2DView002
100
AcDbLine
 10
209.399
 20
30.95
 30
0
 11
205.9
 21
30.95
 31
0
  0
LINE
  5
AEA
330
A02
100
AcDbEntity
  8
Shape2DView002
100
AcDbLine
 10
205.9
 20
42.25
 30
0
 11
205.9
 21
30.95
 31
0
  0
LINE
  5
AEB
330
A02
100
AcDbEntity
  8
Shape2DView002
100
AcDbLine
 10
209.399
 20
42.25
 30
0
 11
205.9
 21
42.25
 31
0
  0
ARC
  5
AEC
330
A02
100
AcDbEntity
  8
Shape2DView002
100
AcDbCircle
 10
209.622
 20
42.3783
 30
0
 40
0.256667
100
AcDbArc
 50
-150
 51
60
  0
LINE
  5
AED
330
A02
100
AcDbEntity
  8
Shape2DView002
100
AcDbLine
 10
209.75
 20
42.6006
 30
0
 11
209.75
 21
46.8994
 31
0
  0
ARC
  5
AEE
330
A02
100
AcDbEntity
  8
Shape2DView002
100
AcDbCircle
 10
209.622
 20
47.1217
 30
0
 40
0.256667
100
AcDbArc
 50
-60
 51
150
  0
LINE
  5
AEF
330
A02
100
AcDbEntity
  8
Shape2DView002
100
AcDbLine
 10
209.399
 20
47.25
 30
0
 11
205.9
 21
47.25
 31
0
  0
LINE
  5
AF0
330
A02
100
AcDbEntity
  8
Shape2DView002
100
AcDbLine
 10
205.9
 20
58.55
 30
0
 11
205.9
 21
47.25
 31
0
  0
LINE
  5
AF1
330
A02
100
AcDbEntity
  8
Shape2DView002
100
AcDbLine
 10
209.399
 20
58.55
 30
0
 11
205.9
 21
58.55
 31
0
  0
ARC
  5
AF2
330
A02
100
AcDbEntity
  8
Shape2DView002
100
AcDbCircle
 10
209.622
 20
58.6783
 30
0
 40
0.256667
100
AcDbArc
 50
-150
 51
60
  0
LINE
  5
AF3
330
A02
100
AcDbEntity
  8
Shape2DView002
100
AcDbLine
 10
209.75
 20
58.9006
 30
0
 11
209.75
 21
63.1994
 31
0
  0
ARC
  5
AF4
330
A02
100
AcDbEntity
  8
Shape2DView002
100
AcDbCircle
 10
209.622
 20
63.4217
 30
0
 40
0.256667
100
AcDbArc
 50
-60
 51
150
  0
LINE
  5
AF5
330
A02
100
AcDbEntity
  8
Shape2DView002
100
AcDbLine
 10
209.399
 20
63.55
 30
0
 11
205.9
 21
63.55
 31
0
  0
LINE
  5
AF6
330
A02
100
AcDbEntity
  8
Shape2DView002
100
AcDbLine
 10
205.9
 20
74.85
 30
0
 11
205.9
 21
63.55
 31
0
  0
LINE
  5
AF7
330
A02
100
AcDbEntity
  8
Shape2DView002
100
AcDbLine
 10
209.399
 20
74.85
 30
0
 11
205.9
 21
74.85
 31
0
  0
ARC
  5
AF8
330
A02
100
AcDbEntity
  8
Shape2DView002
100
AcDbCircle
 10
209.622
 20
74.9783
 30
0
 40
0.256667
100
AcDbArc
 50
-150
 51
60
  0
LINE
  5
AF9
330
A02
100
AcDbEntity
  8
Shape2DView002
100
AcDbLine
 10
209.75
 20
75.2006
 30
0
 11
209.75
 21
79.4994
 31
0
  0
ARC
  5
AFA
330
A02
100
AcDbEntity
  8
Shape2DView002
100
AcDbCircle
 10
209.622
 20
79.7217
 30
0
 40
0.256667
100
AcDbArc
 50
-60
 51
150
  0
LINE
  5
AFB
330
A02
100
AcDbEntity
  8
Shape2DView002
100
AcDbLine
 10
209.399
 20
79.85
 30
0
 11
205.9
 21
79.85
 31
0
  0
LINE
  5
AFC
330
A02
100
AcDbEntity
  8
Shape2DView002
100
AcDbLine
 10
205.9
 20
91.15
 30
0
 11
205.9
 21
79.85
 31
0
  0
LINE
  5
AFD
330
A02
100
AcDbEntity
  8
Shape2DView002
100
AcDbLine
 10
209.399
 20
91.15
 30
0
 11
205.9
 21
91.15
 31
0
  0
ARC
  5
AFE
330
A02
100
AcDbEntity
  8
Shape2DView002
100
AcDbCircle
 10
209.622
 20
91.2783
 30
0
 40
0.256667
100
AcDbArc
 50
-150
 51
60
  0
LINE
  5
AFF
330
A02
100
AcDbEntity
  8
Shape2DView002
100
AcDbLine
 10
209.75
 20
91.5006
 30
0
 11
209.75
 21
95.7994
 31
0
  0
ARC
  5
B00
330
A02
100
AcDbEntity
  8
Shape2DView002
100
AcDbCircle
 10
209.622
 20
96.0217
 30
0
 40
0.256667
100
AcDbArc
 50
-60
 51
150
  0
LINE
  5
B01
330
A02
100
AcDbEntity
  8
Shape2DView002
100
AcDbLine
 10
209.399
 20
96.15
 30
0
 11
205.9
 21
96.15
 31
0
  0
LINE
  5
B02
330
A02
100
AcDbEntity
  8
Shape2DView002
100
AcDbLine
 10
205.9
 20
107.45
 30
0
 11
205.9
 21
96.15
 31
0
  0
LINE
  5
B03
330
A02
100
AcDbEntity
  8
Shape2DView002
100
AcDbLine
 10
209.399
 20
107.45
 30
0
 11
205.9
 21
107.45
 31
0
  0
ARC
  5
B04
330
A02
100
AcDbEntity
  8
Shape2DView002
100
AcDbCircle
 10
209.622
 20
107.578
 30
0
 40
0.256667
100
AcDbArc
 50
-150
 51
60
  0
LINE
  5
B05
330
A02
100
AcDbEntity
  8
Shape2DView002
100
AcDbLine
 10
209.75
 20
107.801
 30
0
 11
209.75
 21
112.099
 31
0
  0
ARC
  5
B06
330
A02
100
AcDbEntity
  8
Shape2DView002
100
AcDbCircle
 10
209.622
 20
112.322
 30
0
 40
0.256667
100
AcDbArc
 50
-60
 51
150
  0
LINE
  5
B07
330
A02
100
AcDbEntity
  8
Shape2DView002
100
AcDbLine
 10
209.399
 20
112.45
 30
0
 11
205.9
 21
112.45
 31
0
  0
LINE
  5
B08
330
A02
100
AcDbEntity
  8
Shape2DView002
100
AcDbLine
 10
205.9
 20
123.75
 30
0
 11
205.9
 21
112.45
 31
0
  0
LINE
  5
B09
330
A02
100
AcDbEntity
  8
Shape2DView002
100
AcDbLine
 10
209.399
 20
123.75
 30
0
 11
205.9
 21
123.75
 31
0
  0
ARC
  5
B0A
330
A02
100
AcDbEntity
  8
Shape2DView002
100
AcDbCircle
 10
209.622
 20
123.878
 30
0
 40
0.256667
100
AcDbArc
 50
-150
 51
60
  0
LINE
  5
B0B
330
A02
100
AcDbEntity
  8
Shape2DView002
100
AcDbLine
 10
209.75
 20
124.101
 30
0
 11
209.75
 21
128.399
 31
0
  0
ARC
  5
B0C
330
A02
100
AcDbEntity
  8
Shape2DView002
100
AcDbCircle
 10
209.622
 20
128.622
 30
0
 40
0.256667
100
AcDbArc
 50
-60
 51
150
  0
LINE
  5
B0D
330
A02
100
AcDbEntity
  8
Shape2DView002
100
AcDbLine
 10
209.399
 20
128.75
 30
0
 11
205.9
 21
128.75
 31
0
  0
LINE
  5
B0E
330
A02
100
AcDbEntity
  8
Shape2DView002
100
AcDbLine
 10
205.9
 20
138.4
 30
0
 11
205.9
 21
128.75
 31
0
  0
LINE
  5
B0F
330
A02
100
AcDbEntity
  8
Shape2DView002
100
AcDbLine
 10
211.82
 20
138.4
 30
0
 11
205.9
 21
138.4
 31
0
  0
LINE
  5
B10
330
A02
100
AcDbEntity
  8
Shape2DView002
100
AcDbLine
 10
211.82
 20
138.4
 30
0
 11
211.82
 21
134.901
 31
0
  0
ARC
  5
B11
330
A02
100
AcDbEntity
  8
Shape2DView002
100
AcDbCircle
 10
211.948
 20
134.678
 30
0
 40
0.256667
100
AcDbArc
 50
120
 51
-90
  0
ARC
  5
B12
330
A02
100
AcDbEntity
  8
Shape2DView002
100
AcDbCircle
 10
211.948
 20
134.678
 30
0
 40
0.256667
100
AcDbArc
 50
-90
 51
-30
  0
LINE
  5
B13
330
A02
100
AcDbEntity
  8
Shape2DView002
100
AcDbLine
 10
216.469
 20
134.55
 30
0
 11
212.171
 21
134.55
 31
0
  0
ARC
  5
B14
330
A02
100
AcDbEntity
  8
Shape2DView002
100
AcDbCircle
 10
216.692
 20
134.678
 30
0
 40
0.256667
100
AcDbArc
 50
-150
 51
-90
  0
ARC
  5
B15
330
A02
100
AcDbEntity
  8
Shape2DView002
100
AcDbCircle
 10
216.692
 20
134.678
 30
0
 40
0.256667
100
AcDbArc
 50
-90
 51
60
  0
LINE
  5
B16
330
A02
100
AcDbEntity
  8
Shape2DView002
100
AcDbLine
 10
216.82
 20
138.4
 30
0
 11
216.82
 21
134.901
 31
0
  0
LINE
  5
B17
330
A02
100
AcDbEntity
  8
Shape2DView002
100
AcDbLine
 10
228.66
 20
138.4
 30
0
 11
216.82
 21
138.4
 31
0
  0
LINE
  5
B18
330
A02
100
AcDbEntity
  8
Shape2DView002
100
AcDbLine
 10
228.66
 20
138.4
 30
0
 11
228.66
 21
134.901
 31
0
  0
ARC
  5
B19
330
A02
100
AcDbEntity
  8
Shape2DView002
100
AcDbCircle
 10
228.788
 20
134.678
 30
0
 40
0.256667
100
AcDbArc
 50
120
 51
-90
  0
ARC
  5
B1A
330
A02
100
AcDbEntity
  8
Shape2DView002
100
AcDbCircle
 10
228.788
 20
134.678
 30
0
 40
0.256667
100
AcDbArc
 50
-90
 51
-30
  0
LINE
  5
B1B
330
A02
100
AcDbEntity
  8
Shape2DView002
100
AcDbLine
 10
233.309
 20
134.55
 30
0
 11
229.011
 21
134.55
 31
0
  0
ARC
  5
B1C
330
A02
100
AcDbEntity
  8
Shape2DView002
100
AcDbCircle
 10
233.532
 20
134.678
 30
0
 40
0.256667
100
AcDbArc
 50
-150
 51
-90
  0
ARC
  5
B1D
330
A02
100
AcDbEntity
  8
Shape2DView002
100
AcDbCircle
 10
233.532
 20
134.678
 30
0
 40
0.256667
100
AcDbArc
 50
-90
 51
60
  0
LINE
  5
B1E
330
A02
100
AcDbEntity
  8
Shape2DView002
100
AcDbLine
 10
233.66
 20
138.4
 30
0
 11
233.66
 21
134.901
 31
0
  0
LINE
  5
B1F
330
A02
100
AcDbEntity
  8
Shape2DView002
100
AcDbLine
 10
245.5
 20
138.4
 30
0
 11
233.66
 21
138.4
 31
0
  0
LINE
  5
B20
330
A02
100
AcDbEntity
  8
Shape2DView002
100
AcDbLine
 10
245.5
 20
138.4
 30
0
 11
245.5
 21
134.901
 31
0
  0
ARC
  5
B21
330
A02
100
AcDbEntity
  8
Shape2DView002
100
AcDbCircle
 10
245.628
 20
134.678
 30
0
 40
0.256667
100
AcDbArc
 50
120
 51
-90
  0
ARC
  5
B22
330
A02
100
AcDbEntity
  8
Shape2DView002
100
AcDbCircle
 10
245.628
 20
134.678
 30
0
 40
0.256667
100
AcDbArc
 50
-90
 51
-30
  0
LINE
  5
B23
330
A02
100
AcDbEntity
  8
Shape2DView002
100
AcDbLine
 10
250.149
 20
134.55
 30
0
 11
245.851
 21
134.55
 31
0
  0
ARC
  5
B24
330
A02
100
AcDbEntity
  8
Shape2DView002
100
AcDbCircle
 10
250.372
 20
134.678
 30
0
 40
0.256667
100
AcDbArc
 50
-150
 51
-90
  0
ARC
  5
B25
330
A02
100
AcDbEntity
  8
Shape2DView002
100
AcDbCircle
 10
250.372
 20
134.678
 30
0
 40
0.256667
100
AcDbArc
 50
-90
 51
60
  0
LINE
  5
B26
330
A02
100
AcDbEntity
  8
Shape2DView002
100
AcDbLine
 10
250.5
 20
138.4
 30
0
 11
250.5
 21
134.901
 31
0
  0
LINE
  5
B27
330
A02
100
AcDbEntity
  8
Shape2DView002
100
AcDbLine
 10
262.34
 20
138.4
 30
0
 11
250.5
 21
138.4
 31
0
  0
LINE
  5
B28
330
A02
100
AcDbEntity
  8
Shape2DView002
100
AcDbLine
 10
262.34
 20
138.4
 30
0
 11
262.34
 21
134.901
 31
0
  0
ARC
  5
B29
330
A02
100
AcDbEntity
  8
Shape2DView002
100
AcDbCircle
 10
262.468
 20
134.678
 30
0
 40
0.256667
100
AcDbArc
 50
120
 51
-90
  0
ARC
  5
B2A
330
A02
100
AcDbEntity
  8
Shape2DView002
100
AcDbCircle
 10
262.468
 20
134.678
 30
0
 40
0.256667
100
AcDbArc
 50
-90
 51
-30
  0
LINE
  5
B2B
330
A02
100
AcDbEntity
  8
Shape2DView002
100
AcDbLine
 10
266.989
 20
134.55
 30
0
 11
262.691
 21
134.55
 31
0
  0
ARC
  5
B2C
330
A02
100
AcDbEntity
  8
Shape2DView002
100
AcDbCircle
 10
267.212
 20
134.678
 30
0
 40
0.256667
100
AcDbArc
 50
-150
 51
-90
  0
ARC
  5
B2D
330
A02
100
AcDbEntity
  8
Shape2DView002
100
AcDbCircle
 10
267.212
 20
134.678
 30
0
 40
0.256667
100
AcDbArc
 50
-90
 51
60
  0
LINE
  5
B2E
330
A02
100
AcDbEntity
  8
Shape2DView002
100
AcDbLine
 10
267.34
 20
138.4
 30
0
 11
267.34
 21
134.901
 31
0
  0
LINE
  5
B2F
330
A02
100
AcDbEntity
  8
Shape2DView002
100
AcDbLine
 10
279.18
 20
138.4
 30
0
 11
267.34
 21
138.4
 31
0
  0
LINE
  5
B30
330
A02
100
AcDbEntity
  8
Shape2DView002
100
AcDbLine
 10
279.18
 20
138.4
 30
0
 11
279.18
 21
134.901
 31
0
  0
ARC
  5
B31
330
A02
100
AcDbEntity
  8
Shape2DView002
100
AcDbCircle
 10
279.308
 20
134.678
 30
0
 40
0.256667
100
AcDbArc
 50
120
 51
-90
  0
ARC
  5
B32
330
A02
100
AcDbEntity
  8
Shape2DView002
100
AcDbCircle
 10
279.308
 20
134.678
 30
0
 40
0.256667
100
AcDbArc
 50
-90
 51
-30
  0
LINE
  5
B33
330
A02
100
AcDbEntity
  8
Shape2DView002
100
AcDbLine
 10
283.829
 20
134.55
 30
0
 11
279.531
 21
134.55
 31
0
  0
ARC
  5
B34
330
A02
100
AcDbEntity
  8
Shape2DView002
100
AcDbCircle
 10
284.052
 20
134.678
 30
0
 40
0.256667
100
AcDbArc
 50
-150
 51
-90
  0
ARC
  5
B35
330
A02
100
AcDbEntity
  8
Shape2DView002
100
AcDbCircle
 10
284.052
 20
134.678
 30
0
 40
0.256667
100
AcDbArc
 50
-90
 51
60
  0
LINE
  5
B36
330
A02
100
AcDbEntity
  8
Shape2DView002
100
AcDbLine
 10
284.18
 20
138.4
 30
0
 11
284.18
 21
134.901
 31
0
  0
LINE
  5
B37
330
A02
100
AcDbEntity
  8
Shape2DView002
100
AcDbLine
 10
296.02
 20
138.4
 30
0
 11
284.18
 21
138.4
 31
0
  0
LINE
  5
B38
330
A02
100
AcDbEntity
  8
Shape2DView002
100
AcDbLine
 10
296.02
 20
138.4
 30
0
 11
296.02
 21
134.901
 31
0
  0
ARC
  5
B39
330
A02
100
AcDbEntity
  8
Shape2DView002
100
AcDbCircle
 10
296.148
 20
134.678
 30
0
 40
0.256667
100
AcDbArc
 50
120
 51
-90
  0
ARC
  5
B3A
330
A02
100
AcDbEntity
  8
Shape2DView002
100
AcDbCircle
 10
296.148
 20
134.678
 30
0
 40
0.256667
100
AcDbArc
 50
-90
 51
-30
  0
LINE
  5
B3B
330
A02
100
AcDbEntity
  8
Shape2DView002
100
AcDbLine
 10
300.669
 20
134.55
 30
0
 11
296.371
 21
134.55
 31
0
  0
ARC
  5
B3C
330
A02
100
AcDbEntity
  8
Shape2DView002
100
AcDbCircle
 10
300.892
 20
134.678
 30
0
 40
0.256667
100
AcDbArc
 50
-150
 51
-90
  0
ARC
  5
B3D
330
A02
100
AcDbEntity
  8
Shape2DView002
100
AcDbCircle
 10
300.892
 20
134.678
 30
0
 40
0.256667
100
AcDbArc
 50
-90
 51
60
  0
LINE
  5
B3E
330
A02
100
AcDbEntity
  8
Shape2DView002
100
AcDbLine
 10
301.02
 20
138.4
 30
0
 11
301.02
 21
134.901
 31
0
  0
LINE
  5
B3F
330
A02
100
AcDbEntity
  8
Shape2DView002
100
AcDbLine
 10
312.86
 20
138.4
 30
0
 11
301.02
 21
138.4
 31
0
  0
LINE
  5
B40
330
A02
100
AcDbEntity
  8
Shape2DView002
100
AcDbLine
 10
312.86
 20
138.4
 30
0
 11
312.86
 21
134.901
 31
0
  0
ARC
  5
B41
330
A02
100
AcDbEntity
  8
Shape2DView002
100
AcDbCircle
 10
312.988
 20
134.678
 30
0
 40
0.256667
100
AcDbArc
 50
120
 51
-90
  0
ARC
  5
B42
330
A02
100
AcDbEntity
  8
Shape2DView002
100
AcDbCircle
 10
312.988
 20
134.678
 30
0
 40
0.256667
100
AcDbArc
 50
-90
 51
-30
  0
LINE
  5
B43
330
A02
100
AcDbEntity
  8
Shape2DView002
100
AcDbLine
 10
317.509
 20
134.55
 30
0
 11
313.211
 21
134.55
 31
0
  0
ARC
  5
B44
330
A02
100
AcDbEntity
  8
Shape2DView002
100
AcDbCircle
 10
317.732
 20
134.678
 30
0
 40
0.256667
100
AcDbArc
 50
-150
 51
-90
  0
ARC
  5
B45
330
A02
100
AcDbEntity
  8
Shape2DView002
100
AcDbCircle
 10
317.732
 20
134.678
 30
0
 40
0.256667
100
AcDbArc
 50
-90
 51
60
  0
LINE
  5
B46
330
A02
100
AcDbEntity
  8
Shape2DView002
100
AcDbLine
 10
317.86
 20
138.4
 30
0
 11
317.86
 21
134.901
 31
0
  0
LINE
  5
B47
330
A02
100
AcDbEntity
  8
Shape2DView002
100
AcDbLine
 10
329.7
 20
138.4
 30
0
 11
317.86
 21
138.4
 31
0
  0
LINE
  5
B48
330
A02
100
AcDbEntity
  8
Shape2DView002
100
AcDbLine
 10
329.7
 20
138.4
 30
0
 11
329.7
 21
134.901
 31
0
  0
ARC
  5
B49
330
A02
100
AcDbEntity
  8
Shape2DView002
100
AcDbCircle
 10
329.828
 20
134.678
 30
0
 40
0.256667
100
AcDbArc
 50
120
 51
-90
  0
ARC
  5
B4A
330
A02
100
AcDbEntity
  8
Shape2DView002
100
AcDbCircle
 10
329.828
 20
134.678
 30
0
 40
0.256667
100
AcDbArc
 50
-90
 51
-30
  0
LINE
  5
B4B
330
A02
100
AcDbEntity
  8
Shape2DView002
100
AcDbLine
 10
334.349
 20
134.55
 30
0
 11
330.051
 21
134.55
 31
0
  0
ARC
  5
B4C
330
A02
100
AcDbEntity
  8
Shape2DView002
100
AcDbCircle
 10
334.572
 20
134.678
 30
0
 40
0.256667
100
AcDbArc
 50
-150
 51
-90
  0
ARC
  5
B4D
330
A02
100
AcDbEntity
  8
Shape2DView002
100
AcDbCircle
 10
334.572
 20
134.678
 30
0
 40
0.256667
100
AcDbArc
 50
-90
 51
60
  0
LINE
  5
B4E
330
A02
100
AcDbEntity
  8
Shape2DView002
100
AcDbLine
 10
334.7
 20
138.4
 30
0
 11
334.7
 21
134.901
 31
0
  0
LINE
  5
B4F
330
A02
100
AcDbEntity
  8
Shape2DView002
100
AcDbLine
 10
346.54
 20
138.4
 30
0
 11
334.7
 21
138.4
 31
0
  0
LINE
  5
B50
330
A02
100
AcDbEntity
  8
Shape2DView002
100
AcDbLine
 10
346.54
 20
138.4
 30
0
 11
346.54
 21
134.901
 31
0
  0
ARC
  5
B51
330
A02
100
AcDbEntity
  8
Shape2DView002
100
AcDbCircle
 10
346.668
 20
134.678
 30
0
 40
0.256667
100
AcDbArc
 50
120
 51
-90
  0
ARC
  5
B52
330
A02
100
AcDbEntity
  8
Shape2DView002
100
AcDbCircle
 10
346.668
 20
134.678
 30
0
 40
0.256667
100
AcDbArc
 50
-90
 51
-30
  0
LINE
  5
B53
330
A02
100
AcDbEntity
  8
Shape2DView002
100
AcDbLine
 10
351.189
 20
134.55
 30
0
 11
346.891
 21
134.55
 31
0
  0
ARC
  5
B54
330
A02
100
AcDbEntity
  8
Shape2DView002
100
AcDbCircle
 10
351.412
 20
134.678
 30
0
 40
0.256667
100
AcDbArc
 50
-150
 51
-90
  0
ARC
  5
B55
330
A02
100
AcDbEntity
  8
Shape2DView002
100
AcDbCircle
 10
351.412
 20
134.678
 30
0
 40
0.256667
100
AcDbArc
 50
-90
 51
60
  0
LINE
  5
B56
330
A02
100
AcDbEntity
  8
Shape2DView002
100
AcDbLine
 10
351.54
 20
138.4
 30
0
 11
351.54
 21
134.901
 31
0
  0
LINE
  5
B57
330
A02
100
AcDbEntity
  8
Shape2DView002
100
AcDbLine
 10
363.38
 20
138.4
 30
0
 11
351.54
 21
138.4
 31
0
  0
LINE
  5
B58
330
A02
100
AcDbEntity
  8
Shape2DView002
100
AcDbLine
 10
363.38
 20
138.4
 30
0
 11
363.38
 21
134.901
 31
0
  0
ARC
  5
B59
330
A02
100
AcDbEntity
  8
Shape2DView002
100
AcDbCircle
 10
363.508
 20
134.678
 30
0
 40
0.256667
100
AcDbArc
 50
120
 51
-90
  0
ARC
  5
B5A
330
A02
100
AcDbEntity
  8
Shape2DView002
100
AcDbCircle
 10
363.508
 20
134.678
 30
0
 40
0.256667
100
AcDbArc
 50
-90
 51
-30
  0
LINE
  5
B5B
330
A02
100
AcDbEntity
  8
Shape2DView002
100
AcDbLine
 10
368.029
 20
134.55
 30
0
 11
363.731
 21
134.55
 31
0
  0
ARC
  5
B5C
330
A02
100
AcDbEntity
  8
Shape2DView002
100
AcDbCircle
 10
368.252
 20
134.678
 30
0
 40
0.256667
100
AcDbArc
 50
-150
 51
-90
  0
ARC
  5
B5D
330
A02
100
AcDbEntity
  8
Shape2DView002
100
AcDbCircle
 10
368.252
 20
134.678
 30
0
 40
0.256667
100
AcDbArc
 50
-90
 51
60
  0
LINE
  5
B5E
330
A02
100
AcDbEntity
  8
Shape2DView002
100
AcDbLine
 10
368.38
 20
138.4
 30
0
 11
368.38
 21
134.901
 31
0
  0
LINE
  5
B5F
330
A02
100
AcDbEntity
  8
Shape2DView002
100
AcDbLine
 10
374.3
 20
138.4
 30
0
 11
368.38
 21
138.4
 31
0
  0
LINE
  5
B60
330
A02
100
AcDbEntity
  8
Shape2DView002
100
AcDbLine
 10
374.3
 20
128.75
 30
0
 11
374.3
 21
138.4
 31
0
  0
LINE
  5
B61
330
A02
100
AcDbEntity
  8
Shape2DView002
100
AcDbLine
 10
374.3
 20
128.75
 30
0
 11
370.801
 21
128.75
 31
0
  0
ARC
  5
B62
330
A02
100
AcDbEntity
  8
Shape2DView002
100
AcDbCircle
 10
370.578
 20
128.622
 30
0
 40
0.256667
100
AcDbArc
 50
30
 51
180
  0
ARC
  5
B63
330
A02
100
AcDbEntity
  8
Shape2DView002
100
AcDbCircle
 10
370.578
 20
128.622
 30
0
 40
0.256667
100
AcDbArc
 50
180
 51
-120
  0
LINE
  5
B64
330
A02
100
AcDbEntity
  8
Shape2DView002
100
AcDbLine
 10
370.45
 20
124.101
 30
0
 11
370.45
 21
128.399
 31
0
  0
ARC
  5
B65
330
A02
100
AcDbEntity
  8
Shape2DView002
100
AcDbCircle
 10
370.578
 20
123.878
 30
0
 40
0.256667
100
AcDbArc
 50
120
 51
180
  0
ARC
  5
B66
330
A02
100
AcDbEntity
  8
Shape2DView002
100
AcDbCircle
 10
370.578
 20
123.878
 30
0
 40
0.256667
100
AcDbArc
 50
180
 51
-30
  0
LINE
  5
B67
330
A02
100
AcDbEntity
  8
Shape2DView002
100
AcDbLine
 10
374.3
 20
123.75
 30
0
 11
370.801
 21
123.75
 31
0
  0
LINE
  5
B68
330
A02
100
AcDbEntity
  8
Shape2DView002
100
AcDbLine
 10
374.3
 20
112.45
 30
0
 11
374.3
 21
123.75
 31
0
  0
LINE
  5
B69
330
A02
100
AcDbEntity
  8
Shape2DView002
100
AcDbLine
 10
374.3
 20
112.45
 30
0
 11
370.801
 21
112.45
 31
0
  0
ARC
  5
B6A
330
A02
100
AcDbEntity
  8
Shape2DView002
100
AcDbCircle
 10
370.578
 20
112.322
 30
0
 40
0.256667
100
AcDbArc
 50
30
 51
180
  0
ARC
  5
B6B
330
A02
100
AcDbEntity
  8
Shape2DView002
100
AcDbCircle
 10
370.578
 20
112.322
 30
0
 40
0.256667
100
AcDbArc
 50
180
 51
-120
  0
LINE
  5
B6C
330
A02
100
AcDbEntity
  8
Shape2DView002
100
AcDbLine
 10
370.45
 20
107.801
 30
0
 11
370.45
 21
112.099
 31
0
  0
ARC
  5
B6D
330
A02
100
AcDbEntity
  8
Shape2DView002
100
AcDbCircle
 10
370.578
 20
107.578
 30
0
 40
0.256667
100
AcDbArc
 50
120
 51
180
  0
ARC
  5
B6E
330
A02
100
AcDbEntity
  8
Shape2DView002
100
AcDbCircle
 10
370.578
 20
107.578
 30
0
 40
0.256667
100
AcDbArc
 50
180
 51
-30
  0
LINE
  5
B6F
330
A02
100
AcDbEntity
  8
Shape2DView002
100
AcDbLine
 10
374.3
 20
107.45
 30
0
 11
370.801
 21
107.45
 31
0
  0
LINE
  5
B70
330
A02
100
AcDbEntity
  8
Shape2DView002
100
AcDbLine
 10
374.3
 20
96.15
 30
0
 11
374.3
 21
107.45
 31
0
  0
LINE
  5
B71
330
A02
100
AcDbEntity
  8
Shape2DView002
100
AcDbLine
 10
374.3
 20
96.15
 30
0
 11
370.801
 21
96.15
 31
0
  0
ARC
  5
B72
330
A02
100
AcDbEntity
  8
Shape2DView002
100
AcDbCircle
 10
370.578
 20
96.0217
 30
0
 40
0.256667
100
AcDbArc
 50
30
 51
180
  0
ARC
  5
B73
330
A02
100
AcDbEntity
  8
Shape2DView002
100
AcDbCircle
 10
370.578
 20
96.0217
 30
0
 40
0.256667
100
AcDbArc
 50
180
 51
-120
  0
LINE
  5
B74
330
A02
100
AcDbEntity
  8
Shape2DView002
100
AcDbLine
 10
370.45
 20
91.5006
 30
0
 11
370.45
 21
95.7994
 31
0
  0
ARC
  5
B75
330
A02
100
AcDbEntity
  8
Shape2DView002
100
AcDbCircle
 10
370.578
 20
91.2783
 30
0
 40
0.256667
100
AcDbArc
 50
120
 51
180
  0
ARC
  5
B76
330
A02
100
AcDbEntity
  8
Shape2DView002
100
AcDbCircle
 10
370.578
 20
91.2783
 30
0
 40
0.256667
100
AcDbArc
 50
180
 51
-30
  0
LINE
  5
B77
330
A02
100
AcDbEntity
  8
Shape2DView002
100
AcDbLine
 10
374.3
 20
91.15
 30
0
 11
370.801
 21
91.15
 31
0
  0
LINE
  5
B78
330
A02
100
AcDbEntity
  8
Shape2DView002
100
AcDbLine
 10
374.3
 20
79.85
 30
0
 11
374.3
 21
91.15
 31
0
  0
LINE
  5
B79
330
A02
100
AcDbEntity
  8
Shape2DView002
100
AcDbLine
 10
374.3
 20
79.85
 30
0
 11
370.801
 21
79.85
 31
0
  0
ARC
  5
B7A
330
A02
100
AcDbEntity
  8
Shape2DView002
100
AcDbCircle
 10
370.578
 20
79.7217
 30
0
 40
0.256667
100
AcDbArc
 50
30
 51
180
  0
ARC
  5
B7B
330
A02
100
AcDbEntity
  8
Shape2DView002
100
AcDbCircle
 10
370.578
 20
79.7217
 30
0
 40
0.256667
100
AcDbArc
 50
180
 51
-120
  0
LINE
  5
B7C
330
A02
100
AcDbEntity
  8
Shape2DView002
100
AcDbLine
 10
370.45
 20
75.2006
 30
0
 11
370.45
 21
79.4994
 31
0
  0
ARC
  5
B7D
330
A02
100
AcDbEntity
  8
Shape2DView002
100
AcDbCircle
 10
370.578
 20
74.9783
 30
0
 40
0.256667
100
AcDbArc
 50
120
 51
180
  0
ARC
  5
B7E
330
A02
100
AcDbEntity
  8
Shape2DView002
100
AcDbCircle
 10
370.578
 20
74.9783
 30
0
 40
0.256667
100
AcDbArc
 50
180
 51
-30
  0
LINE
  5
B7F
330
A02
100
AcDbEntity
  8
Shape2DView002
100
AcDbLine
 10
374.3
 20
74.85
 30
0
 11
370.801
 21
74.85
 31
0
  0
LINE
  5
B80
330
A02
100
AcDbEntity
  8
Shape2DView002
100
AcDbLine
 10
374.3
 20
63.55
 30
0
 11
374.3
 21
74.85
 31
0
  0
LINE
  5
B81
330
A02
100
AcDbEntity
  8
Shape2DView002
100
AcDbLine
 10
374.3
 20
63.55
 30
0
 11
370.801
 21
63.55
 31
0
  0
ARC
  5
B82
330
A02
100
AcDbEntity
  8
Shape2DView002
100
AcDbCircle
 10
370.578
 20
63.4217
 30
0
 40
0.256667
100
AcDbArc
 50
30
 51
180
  0
ARC
  5
B83
330
A02
100
AcDbEntity
  8
Shape2DView002
100
AcDbCircle
 10
370.578
 20
63.4217
 30
0
 40
0.256667
100
AcDbArc
 50
180
 51
-120
  0
LINE
  5
B84
330
A02
100
AcDbEntity
  8
Shape2DView002
100
AcDbLine
 10
370.45
 20
58.9006
 30
0
 11
370.45
 21
63.1994
 31
0
  0
ARC
  5
B85
330
A02
100
AcDbEntity
  8
Shape2DView002
100
AcDbCircle
 10
370.578
 20
58.6783
 30
0
 40
0.256667
100
AcDbArc
 50
120
 51
180
  0
ARC
  5
B86
330
A02
100
AcDbEntity
  8
Shape2DView002
100
AcDbCircle
 10
370.578
 20
58.6783
 30
0
 40
0.256667
100
AcDbArc
 50
180
 51
-30
  0
LINE
  5
B87
330
A02
100
AcDbEntity
  8
Shape2DView002
100
AcDbLine
 10
374.3
 20
58.55
 30
0
 11
370.801
 21
58.55
 31
0
  0
LINE
  5
B88
330
A02
100
AcDbEntity
  8
Shape2DView002
100
AcDbLine
 10
374.3
 20
47.25
 30
0
 11
374.3
 21
58.55
 31
0
  0
LINE
  5
B89
330
A02
100
AcDbEntity
  8
Shape2DView002
100
AcDbLine
 10
374.3
 20
47.25
 30
0
 11
370.801
 21
47.25
 31
0
  0
ARC
  5
B8A
330
A02
100
AcDbEntity
  8
Shape2DView002
100
AcDbCircle
 10
370.578
 20
47.1217
 30
0
 40
0.256667
100
AcDbArc
 50
30
 51
180
  0
ARC
  5
B8B
330
A02
100
AcDbEntity
  8
Shape2DView002
100
AcDbCircle
 10
370.578
 20
47.1217
 30
0
 40
0.256667
100
AcDbArc
 50
180
 51
-120
  0
LINE
  5
B8C
330
A02
100
AcDbEntity
  8
Shape2DView002
100
AcDbLine
 10
370.45
 20
42.6006
 30
0
 11
370.45
 21
46.8994
 31
0
  0
ARC
  5
B8D
330
A02
100
AcDbEntity
  8
Shape2DView002
100
AcDbCircle
 10
370.578
 20
42.3783
 30
0
 40
0.256667
100
AcDbArc
 50
120
 51
180
  0
ARC
  5
B8E
330
A02
100
AcDbEntity
  8
Shape2DView002
100
AcDbCircle
 10
370.578
 20
42.3783
 30
0
 40
0.256667
100
AcDbArc
 50
180
 51
-30
  0
LINE
  5
B8F
330
A02
100
AcDbEntity
  8
Shape2DView002
100
AcDbLine
 10
374.3
 20
42.25
 30
0
 11
370.801
 21
42.25
 31
0
  0
LINE
  5
B90
330
A02
100
AcDbEntity
  8
Shape2DView002
100
AcDbLine
 10
374.3
 20
30.95
 30
0
 11
374.3
 21
42.25
 31
0
  0
LINE
  5
B91
330
A02
100
AcDbEntity
  8
Shape2DView002
100
AcDbLine
 10
374.3
 20
30.95
 30
0
 11
370.801
 21
30.95
 31
0
  0
ARC
  5
B92
330
A02
100
AcDbEntity
  8
Shape2DView002
100
AcDbCircle
 10
370.578
 20
30.8217
 30
0
 40
0.256667
100
AcDbArc
 50
30
 51
180
  0
ARC
  5
B93
330
A02
100
AcDbEntity
  8
Shape2DView002
100
AcDbCircle
 10
370.578
 20
30.8217
 30
0
 40
0.256667
100
AcDbArc
 50
180
 51
-120
  0
LINE
  5
B94
330
A02
100
AcDbEntity
  8
Shape2DView002
100
AcDbLine
 10
370.45
 20
26.3006
 30
0
 11
370.45
 21
30.5994
 31
0
  0
ARC
  5
B95
330
A02
100
AcDbEntity
  8
Shape2DView002
100
AcDbCircle
 10
370.578
 20
26.0783
 30
0
 40
0.256667
100
AcDbArc
 50
120
 51
180
  0
ARC
  5
B96
330
A02
100
AcDbEntity
  8
Shape2DView002
100
AcDbCircle
 10
370.578
 20
26.0783
 30
0
 40
0.256667
100
AcDbArc
 50
180
 51
-30
  0
LINE
  5
B97
330
A02
100
AcDbEntity
  8
Shape2DView002
100
AcDbLine
 10
374.3
 20
25.95
 30
0
 11
370.801
 21
25.95
 31
0
  0
LINE
  5
B98
330
A02
100
AcDbEntity
  8
Shape2DView002
100
AcDbLine
 10
374.3
 20
14.65
 30
0
 11
374.3
 21
25.95
 31
0
  0
LINE
  5
B99
330
A02
100
AcDbEntity
  8
Shape2DView002
100
AcDbLine
 10
374.3
 20
14.65
 30
0
 11
370.801
 21
14.65
 31
0
  0
ARC
  5
B9A
330
A02
100
AcDbEntity
  8
Shape2DView002
100
AcDbCircle
 10
370.578
 20
14.5217
 30
0
 40
0.256667
100
AcDbArc
 50
30
 51
180
  0
ARC
  5
B9B
330
A02
100
AcDbEntity
  8
Shape2DView002
100
AcDbCircle
 10
370.578
 20
14.5217
 30
0
 40
0.256667
100
AcDbArc
 50
180
 51
-120
  0
LINE
  5
B9C
330
A02
100
AcDbEntity
  8
Shape2DView002
100
AcDbLine
 10
370.45
 20
10.0006
 30
0
 11
370.45
 21
14.2994
 31
0
  0
ARC
  5
B9D
330
A02
100
AcDbEntity
  8
Shape2DView002
100
AcDbCircle
 10
370.578
 20
9.77833
 30
0
 40
0.256667
100
AcDbArc
 50
120
 51
180
  0
ARC
  5
B9E
330
A02
100
AcDbEntity
  8
Shape2DView002
100
AcDbCircle
 10
370.578
 20
9.77833
 30
0
 40
0.256667
100
AcDbArc
 50
180
 51
-30
  0
LINE
  5
B9F
330
A02
100
AcDbEntity
  8
Shape2DView002
100
AcDbLine
 10
374.3
 20
9.65
 30
0
 11
370.801
 21
9.65
 31
0
  0
ARC
  5
BA0
330
A02
100
AcDbEntity
  8
Shape2DView002
100
AcDbCircle
 10
231.642
 20
23.9267
 30
0
 40
0.246667
100
AcDbArc
 50
-60
 51
90
  0
ARC
  5
BA1
330
A02
100
AcDbEntity
  8
Shape2DView002
100
AcDbCircle
 10
231.642
 20
23.9267
 30
0
 40
0.246667
100
AcDbArc
 50
90
 51
150
  0
LINE
  5
BA2
330
A02
100
AcDbEntity
  8
Shape2DView002
100
AcDbLine
 10
227.102
 20
24.05
 30
0
 11
231.428
 21
24.05
 31
0
  0
ARC
  5
BA3
330
A02
100
AcDbEntity
  8
Shape2DView002
100
AcDbCircle
 10
226.888
 20
23.9267
 30
0
 40
0.246667
100
AcDbArc
 50
30
 51
90
  0
ARC
  5
BA4
330
A02
100
AcDbEntity
  8
Shape2DView002
100
AcDbCircle
 10
226.888
 20
23.9267
 30
0
 40
0.246667
100
AcDbArc
 50
90
 51
-120
  0
LINE
  5
BA5
330
A02
100
AcDbEntity
  8
Shape2DView002
100
AcDbLine
 10
226.765
 20
20.687
 30
0
 11
226.765
 21
23.713
 31
0
  0
ARC
  5
BA6
330
A02
100
AcDbEntity
  8
Shape2DView002
100
AcDbCircle
 10
226.888
 20
20.4733
 30
0
 40
0.246667
100
AcDbArc
 50
120
 51
-30
  0
LINE
  5
BA7
330
A02
100
AcDbEntity
  8
Shape2DView002
100
AcDbLine
 10
227.102
 20
20.35
 30
0
 11
231.428
 21
20.35
 31
0
  0
ARC
  5
BA8
330
A02
100
AcDbEntity
  8
Shape2DView002
100
AcDbCircle
 10
231.642
 20
20.4733
 30
0
 40
0.246667
100
AcDbArc
 50
-150
 51
60
  0
LINE
  5
BA9
330
A02
100
AcDbEntity
  8
Shape2DView002
100
AcDbLine
 10
231.765
 20
20.687
 30
0
 11
231.765
 21
23.713
 31
0
  0
ARC
  5
BAA
330
A02
100
AcDbEntity
  8
Shape2DView002
100
AcDbCircle
 10
224.827
 20
27.1483
 30
0
 40
0.246667
100
AcDbArc
 50
-150
 51
0
  0
ARC
  5
BAB
330
A02
100
AcDbEntity
  8
Shape2DView002
100
AcDbCircle
 10
224.827
 20
27.1483
 30
0
 40
0.246667
100
AcDbArc
 50
0
 51
60
  0
LINE
  5
BAC
330
A02
100
AcDbEntity
  8
Shape2DView002
100
AcDbLine
 10
224.95
 20
31.688
 30
0
 11
224.95
 21
27.362
 31
0
  0
ARC
  5
BAD
330
A02
100
AcDbEntity
  8
Shape2DView002
100
AcDbCircle
 10
224.827
 20
31.9017
 30
0
 40
0.246667
100
AcDbArc
 50
-60
 51
0
  0
ARC
  5
BAE
330
A02
100
AcDbEntity
  8
Shape2DView002
100
AcDbCircle
 10
224.827
 20
31.9017
 30
0
 40
0.246667
100
AcDbArc
 50
0
 51
150
  0
LINE
  5
BAF
330
A02
100
AcDbEntity
  8
Shape2DView002
100
AcDbLine
 10
221.587
 20
32.025
 30
0
 11
224.613
 21
32.025
 31
0
  0
ARC
  5
BB0
330
A02
100
AcDbEntity
  8
Shape2DView002
100
AcDbCircle
 10
221.373
 20
31.9017
 30
0
 40
0.246667
100
AcDbArc
 50
30
 51
-120
  0
LINE
  5
BB1
330
A02
100
AcDbEntity
  8
Shape2DView002
100
AcDbLine
 10
221.25
 20
31.688
 30
0
 11
221.25
 21
27.362
 31
0
  0
ARC
  5
BB2
330
A02
100
AcDbEntity
  8
Shape2DView002
100
AcDbCircle
 10
221.373
 20
27.1483
 30
0
 40
0.246667
100
AcDbArc
 50
120
 51
-30
  0
LINE
  5
BB3
330
A02
100
AcDbEntity
  8
Shape2DView002
100
AcDbLine
 10
221.587
 20
27.025
 30
0
 11
224.613
 21
27.025
 31
0
  0
ARC
  5
BB4
330
A02
100
AcDbEntity
  8
Shape2DView002
100
AcDbCircle
 10
292.477
 20
23.9267
 30
0
 40
0.246667
100
AcDbArc
 50
-60
 51
90
  0
ARC
  5
BB5
330
A02
100
AcDbEntity
  8
Shape2DView002
100
AcDbCircle
 10
292.477
 20
23.9267
 30
0
 40
0.246667
100
AcDbArc
 50
90
 51
150
  0
LINE
  5
BB6
330
A02
100
AcDbEntity
  8
Shape2DView002
100
AcDbLine
 10
287.937
 20
24.05
 30
0
 11
292.263
 21
24.05
 31
0
  0
ARC
  5
BB7
330
A02
100
AcDbEntity
  8
Shape2DView002
100
AcDbCircle
 10
287.723
 20
23.9267
 30
0
 40
0.246667
100
AcDbArc
 50
30
 51
90
  0
ARC
  5
BB8
330
A02
100
AcDbEntity
  8
Shape2DView002
100
AcDbCircle
 10
287.723
 20
23.9267
 30
0
 40
0.246667
100
AcDbArc
 50
90
 51
-120
  0
LINE
  5
BB9
330
A02
100
AcDbEntity
  8
Shape2DView002
100
AcDbLine
 10
287.6
 20
20.687
 30
0
 11
287.6
 21
23.713
 31
0
  0
ARC
  5
BBA
330
A02
100
AcDbEntity
  8
Shape2DView002
100
AcDbCircle
 10
287.723
 20
20.4733
 30
0
 40
0.246667
100
AcDbArc
 50
120
 51
-30
  0
LINE
  5
BBB
330
A02
100
AcDbEntity
  8
Shape2DView002
100
AcDbLine
 10
287.937
 20
20.35
 30
0
 11
292.263
 21
20.35
 31
0
  0
ARC
  5
BBC
330
A02
100
AcDbEntity
  8
Shape2DView002
100
AcDbCircle
 10
292.477
 20
20.4733
 30
0
 40
0.246667
100
AcDbArc
 50
-150
 51
60
  0
LINE
  5
BBD
330
A02
100
AcDbEntity
  8
Shape2DView002
100
AcDbLine
 10
292.6
 20
20.687
 30
0
 11
292.6
 21
23.713
 31
0
  0
ARC
  5
BBE
330
A02
100
AcDbEntity
  8
Shape2DView002
100
AcDbCircle
 10
353.312
 20
23.9267
 30
0
 40
0.246667
100
AcDbArc
 50
-60
 51
90
  0
ARC
  5
BBF
330
A02
100
AcDbEntity
  8
Shape2DView002
100
AcDbCircle
 10
353.312
 20
23.9267
 30
0
 40
0.246667
100
AcDbArc
 50
90
 51
150
  0
LINE
  5
BC0
330
A02
100
AcDbEntity
  8
Shape2DView002
100
AcDbLine
 10
348.772
 20
24.05
 30
0
 11
353.098
 21
24.05
 31
0
  0
ARC
  5
BC1
330
A02
100
AcDbEntity
  8
Shape2DView002
100
AcDbCircle
 10
348.558
 20
23.9267
 30
0
 40
0.246667
100
AcDbArc
 50
30
 51
90
  0
ARC
  5
BC2
330
A02
100
AcDbEntity
  8
Shape2DView002
100
AcDbCircle
 10
348.558
 20
23.9267
 30
0
 40
0.246667
100
AcDbArc
 50
90
 51
-120
  0
LINE
  5
BC3
330
A02
100
AcDbEntity
  8
Shape2DView002
100
AcDbLine
 10
348.435
 20
20.687
 30
0
 11
348.435
 21
23.713
 31
0
  0
ARC
  5
BC4
330
A02
100
AcDbEntity
  8
Shape2DView002
100
AcDbCircle
 10
348.558
 20
20.4733
 30
0
 40
0.246667
100
AcDbArc
 50
120
 51
-30
  0
LINE
  5
BC5
330
A02
100
AcDbEntity
  8
Shape2DView002
100
AcDbLine
 10
348.772
 20
20.35
 30
0
 11
353.098
 21
20.35
 31
0
  0
ARC
  5
BC6
330
A02
100
AcDbEntity
  8
Shape2DView002
100
AcDbCircle
 10
353.312
 20
20.4733
 30
0
 40
0.246667
100
AcDbArc
 50
-150
 51
60
  0
LINE
  5
BC7
330
A02
100
AcDbEntity
  8
Shape2DView002
100
AcDbLine
 10
353.435
 20
20.687
 30
0
 11
353.435
 21
23.713
 31
0
  0
ARC
  5
BC8
330
A02
100
AcDbEntity
  8
Shape2DView002
100
AcDbCircle
 10
358.827
 20
27.1483
 30
0
 40
0.246667
100
AcDbArc
 50
-150
 51
0
  0
ARC
  5
BC9
330
A02
100
AcDbEntity
  8
Shape2DView002
100
AcDbCircle
 10
358.827
 20
27.1483
 30
0
 40
0.246667
100
AcDbArc
 50
0
 51
60
  0
LINE
  5
BCA
330
A02
100
AcDbEntity
  8
Shape2DView002
100
AcDbLine
 10
358.95
 20
31.688
 30
0
 11
358.95
 21
27.362
 31
0
  0
ARC
  5
BCB
330
A02
100
AcDbEntity
  8
Shape2DView002
100
AcDbCircle
 10
358.827
 20
31.9017
 30
0
 40
0.246667
100
AcDbArc
 50
-60
 51
0
  0
ARC
  5
BCC
330
A02
100
AcDbEntity
  8
Shape2DView002
100
AcDbCircle
 10
358.827
 20
31.9017
 30
0
 40
0.246667
100
AcDbArc
 50
0
 51
150
  0
LINE
  5
BCD
330
A02
100
AcDbEntity
  8
Shape2DView002
100
AcDbLine
 10
355.587
 20
32.025
 30
0
 11
358.613
 21
32.025
 31
0
  0
ARC
  5
BCE
330
A02
100
AcDbEntity
  8
Shape2DView002
100
AcDbCircle
 10
355.373
 20
31.9017
 30
0
 40
0.246667
100
AcDbArc
 50
30
 51
-120
  0
LINE
  5
BCF
330
A02
100
AcDbEntity
  8
Shape2DView002
100
AcDbLine
 10
355.25
 20
31.688
 30
0
 11
355.25
 21
27.362
 31
0
  0
ARC
  5
BD0
330
A02
100
AcDbEntity
  8
Shape2DView002
100
AcDbCircle
 10
355.373
 20
27.1483
 30
0
 40
0.246667
100
AcDbArc
 50
120
 51
-30
  0
LINE
  5
BD1
330
A02
100
AcDbEntity
  8
Shape2DView002
100
AcDbLine
 10
355.587
 20
27.025
 30
0
 11
358.613
 21
27.025
 31
0
  0
ARC
  5
BD2
330
A02
100
AcDbEntity
  8
Shape2DView002
100
AcDbCircle
 10
224.827
 20
66.8233
 30
0
 40
0.246667
100
AcDbArc
 50
-150
 51
0
  0
ARC
  5
BD3
330
A02
100
AcDbEntity
  8
Shape2DView002
100
AcDbCircle
 10
224.827
 20
66.8233
 30
0
 40
0.246667
100
AcDbArc
 50
0
 51
60
  0
LINE
  5
BD4
330
A02
100
AcDbEntity
  8
Shape2DView002
100
AcDbLine
 10
224.95
 20
71.363
 30
0
 11
224.95
 21
67.037
 31
0
  0
ARC
  5
BD5
330
A02
100
AcDbEntity
  8
Shape2DView002
100
AcDbCircle
 10
224.827
 20
71.5767
 30
0
 40
0.246667
100
AcDbArc
 50
-60
 51
0
  0
ARC
  5
BD6
330
A02
100
AcDbEntity
  8
Shape2DView002
100
AcDbCircle
 10
224.827
 20
71.5767
 30
0
 40
0.246667
100
AcDbArc
 50
0
 51
150
  0
LINE
  5
BD7
330
A02
100
AcDbEntity
  8
Shape2DView002
100
AcDbLine
 10
221.587
 20
71.7
 30
0
 11
224.613
 21
71.7
 31
0
  0
ARC
  5
BD8
330
A02
100
AcDbEntity
  8
Shape2DView002
100
AcDbCircle
 10
221.373
 20
71.5767
 30
0
 40
0.246667
100
AcDbArc
 50
30
 51
-120
  0
LINE
  5
BD9
330
A02
100
AcDbEntity
  8
Shape2DView002
100
AcDbLine
 10
221.25
 20
71.363
 30
0
 11
221.25
 21
67.037
 31
0
  0
ARC
  5
BDA
330
A02
100
AcDbEntity
  8
Shape2DView002
100
AcDbCircle
 10
221.373
 20
66.8233
 30
0
 40
0.246667
100
AcDbArc
 50
120
 51
-30
  0
LINE
  5
BDB
330
A02
100
AcDbEntity
  8
Shape2DView002
100
AcDbLine
 10
221.587
 20
66.7
 30
0
 11
224.613
 21
66.7
 31
0
  0
ARC
  5
BDC
330
A02
100
AcDbEntity
  8
Shape2DView002
100
AcDbCircle
 10
224.827
 20
106.498
 30
0
 40
0.246667
100
AcDbArc
 50
-150
 51
0
  0
ARC
  5
BDD
330
A02
100
AcDbEntity
  8
Shape2DView002
100
AcDbCircle
 10
224.827
 20
106.498
 30
0
 40
0.246667
100
AcDbArc
 50
0
 51
60
  0
LINE
  5
BDE
330
A02
100
AcDbEntity
  8
Shape2DView002
100
AcDbLine
 10
224.95
 20
111.038
 30
0
 11
224.95
 21
106.712
 31
0
  0
ARC
  5
BDF
330
A02
100
AcDbEntity
  8
Shape2DView002
100
AcDbCircle
 10
224.827
 20
111.252
 30
0
 40
0.246667
100
AcDbArc
 50
-60
 51
0
  0
ARC
  5
BE0
330
A02
100
AcDbEntity
  8
Shape2DView002
100
AcDbCircle
 10
224.827
 20
111.252
 30
0
 40
0.246667
100
AcDbArc
 50
0
 51
150
  0
LINE
  5
BE1
330
A02
100
AcDbEntity
  8
Shape2DView002
100
AcDbLine
 10
221.587
 20
111.375
 30
0
 11
224.613
 21
111.375
 31
0
  0
ARC
  5
BE2
330
A02
100
AcDbEntity
  8
Shape2DView002
100
AcDbCircle
 10
221.373
 20
111.252
 30
0
 40
0.246667
100
AcDbArc
 50
30
 51
-120
  0
LINE
  5
BE3
330
A02
100
AcDbEntity
  8
Shape2DView002
100
AcDbLine
 10
221.25
 20
111.038
 30
0
 11
221.25
 21
106.712
 31
0
  0
ARC
  5
BE4
330
A02
100
AcDbEntity
  8
Shape2DView002
100
AcDbCircle
 10
221.373
 20
106.498
 30
0
 40
0.246667
100
AcDbArc
 50
120
 51
-30
  0
LINE
  5
BE5
330
A02
100
AcDbEntity
  8
Shape2DView002
100
AcDbLine
 10
221.587
 20
106.375
 30
0
 11
224.613
 21
106.375
 31
0
  0
ARC
  5
BE6
330
A02
100
AcDbEntity
  8
Shape2DView002
100
AcDbCircle
 10
231.642
 20
117.927
 30
0
 40
0.246667
100
AcDbArc
 50
-60
 51
90
  0
ARC
  5
BE7
330
A02
100
AcDbEntity
  8
Shape2DView002
100
AcDbCircle
 10
231.642
 20
117.927
 30
0
 40
0.246667
100
AcDbArc
 50
90
 51
150
  0
LINE
  5
BE8
330
A02
100
AcDbEntity
  8
Shape2DView002
100
AcDbLine
 10
227.102
 20
118.05
 30
0
 11
231.428
 21
118.05
 31
0
  0
ARC
  5
BE9
330
A02
100
AcDbEntity
  8
Shape2DView002
100
AcDbCircle
 10
226.888
 20
117.927
 30
0
 40
0.246667
100
AcDbArc
 50
30
 51
90
  0
ARC
  5
BEA
330
A02
100
AcDbEntity
  8
Shape2DView002
100
AcDbCircle
 10
226.888
 20
117.927
 30
0
 40
0.246667
100
AcDbArc
 50
90
 51
-120
  0
LINE
  5
BEB
330
A02
100
AcDbEntity
  8
Shape2DView002
100
AcDbLine
 10
226.765
 20
114.687
 30
0
 11
226.765
 21
117.713
 31
0
  0
ARC
  5
BEC
330
A02
100
AcDbEntity
  8
Shape2DView002
100
AcDbCircle
 10
226.888
 20
114.473
 30
0
 40
0.246667
100
AcDbArc
 50
120
 51
-30
  0
LINE
  5
BED
330
A02
100
AcDbEntity
  8
Shape2DView002
100
AcDbLine
 10
227.102
 20
114.35
 30
0
 11
231.428
 21
114.35
 31
0
  0
ARC
  5
BEE
330
A02
100
AcDbEntity
  8
Shape2DView002
100
AcDbCircle
 10
231.642
 20
114.473
 30
0
 40
0.246667
100
AcDbArc
 50
-150
 51
60
  0
LINE
  5
BEF
330
A02
100
AcDbEntity
  8
Shape2DView002
100
AcDbLine
 10
231.765
 20
114.687
 30
0
 11
231.765
 21
117.713
 31
0
  0
ARC
  5
BF0
330
A02
100
AcDbEntity
  8
Shape2DView002
100
AcDbCircle
 10
358.827
 20
66.8233
 30
0
 40
0.246667
100
AcDbArc
 50
-150
 51
0
  0
ARC
  5
BF1
330
A02
100
AcDbEntity
  8
Shape2DView002
100
AcDbCircle
 10
358.827
 20
66.8233
 30
0
 40
0.246667
100
AcDbArc
 50
0
 51
60
  0
LINE
  5
BF2
330
A02
100
AcDbEntity
  8
Shape2DView002
100
AcDbLine
 10
358.95
 20
71.363
 30
0
 11
358.95
 21
67.037
 31
0
  0
ARC
  5
BF3
330
A02
100
AcDbEntity
  8
Shape2DView002
100
AcDbCircle
 10
358.827
 20
71.5767
 30
0
 40
0.246667
100
AcDbArc
 50
-60
 51
0
  0
ARC
  5
BF4
330
A02
100
AcDbEntity
  8
Shape2DView002
100
AcDbCircle
 10
358.827
 20
71.5767
 30
0
 40
0.246667
100
AcDbArc
 50
0
 51
150
  0
LINE
  5
BF5
330
A02
100
AcDbEntity
  8
Shape2DView002
100
AcDbLine
 10
355.587
 20
71.7
 30
0
 11
358.613
 21
71.7
 31
0
  0
ARC
  5
BF6
330
A02
100
AcDbEntity
  8
Shape2DView002
100
AcDbCircle
 10
355.373
 20
71.5767
 30
0
 40
0.246667
100
AcDbArc
 50
30
 51
-120
  0
LINE
  5
BF7
330
A02
100
AcDbEntity
  8
Shape2DView002
100
AcDbLine
 10
355.25
 20
71.363
 30
0
 11
355.25
 21
67.037
 31
0
  0
ARC
  5
BF8
330
A02
100
AcDbEntity
  8
Shape2DView002
100
AcDbCircle
 10
355.373
 20
66.8233
 30
0
 40
0.246667
100
AcDbArc
 50
120
 51
-30
  0
LINE
  5
BF9
330
A02
100
AcDbEntity
  8
Shape2DView002
100
AcDbLine
 10
355.587
 20
66.7
 30
0
 11
358.613
 21
66.7
 31
0
  0
ARC
  5
BFA
330
A02
100
AcDbEntity
  8
Shape2DView002
100
AcDbCircle
 10
292.477
 20
117.927
 30
0
 40
0.246667
100
AcDbArc
 50
-60
 51
90
  0
ARC
  5
BFB
330
A02
100
AcDbEntity
  8
Shape2DView002
100
AcDbCircle
 10
292.477
 20
117.927
 30
0
 40
0.246667
100
AcDbArc
 50
90
 51
150
  0
LINE
  5
BFC
330
A02
100
AcDbEntity
  8
Shape2DView002
100
AcDbLine
 10
287.937
 20
118.05
 30
0
 11
292.263
 21
118.05
 31
0
  0
ARC
  5
BFD
330
A02
100
AcDbEntity
  8
Shape2DView002
100
AcDbCircle
 10
287.723
 20
117.927
 30
0
 40
0.246667
100
AcDbArc
 50
30
 51
90
  0
ARC
  5
BFE
330
A02
100
AcDbEntity
  8
Shape2DView002
100
AcDbCircle
 10
287.723
 20
117.927
 30
0
 40
0.246667
100
AcDbArc
 50
90
 51
-120
  0
LINE
  5
BFF
330
A02
100
AcDbEntity
  8
Shape2DView002
100
AcDbLine
 10
287.6
 20
114.687
 30
0
 11
287.6
 21
117.713
 31
0
  0
ARC
  5
C00
330
A02
100
AcDbEntity
  8
Shape2DView002
100
AcDbCircle
 10
287.723
 20
114.473
 30
0
 40
0.246667
100
AcDbArc
 50
120
 51
-30
  0
LINE
  5
C01
330
A02
100
AcDbEntity
  8
Shape2DView002
100
AcDbLine
 10
287.937
 20
114.35
 30
0
 11
292.263
 21
114.35
 31
0
  0
ARC
  5
C02
330
A02
100
AcDbEntity
  8
Shape2DView002
100
AcDbCircle
 10
292.477
 20
114.473
 30
0
 40
0.246667
100
AcDbArc
 50
-150
 51
60
  0
LINE
  5
C03
330
A02
100
AcDbEntity
  8
Shape2DView002
100
AcDbLine
 10
292.6
 20
114.687
 30
0
 11
292.6
 21
117.713
 31
0
  0
ARC
  5
C04
330
A02
100
AcDbEntity
  8
Shape2DView002
100
AcDbCircle
 10
358.827
 20
106.498
 30
0
 40
0.246667
100
AcDbArc
 50
-150
 51
0
  0
ARC
  5
C05
330
A02
100
AcDbEntity
  8
Shape2DView002
100
AcDbCircle
 10
358.827
 20
106.498
 30
0
 40
0.246667
100
AcDbArc
 50
0
 51
60
  0
LINE
  5
C06
330
A02
100
AcDbEntity
  8
Shape2DView002
100
AcDbLine
 10
358.95
 20
111.038
 30
0
 11
358.95
 21
106.712
 31
0
  0
ARC
  5
C07
330
A02
100
AcDbEntity
  8
Shape2DView002
100
AcDbCircle
 10
358.827
 20
111.252
 30
0
 40
0.246667
100
AcDbArc
 50
-60
 51
0
  0
ARC
  5
C08
330
A02
100
AcDbEntity
  8
Shape2DView002
100
AcDbCircle
 10
358.827
 20
111.252
 30
0
 40
0.246667
100
AcDbArc
 50
0
 51
150
  0
LINE
  5
C09
330
A02
100
AcDbEntity
  8
Shape2DView002
100
AcDbLine
 10
355.587
 20
111.375
 30
0
 11
358.613
 21
111.375
 31
0
  0
ARC
  5
C0A
330
A02
100
AcDbEntity
  8
Shape2DView002
100
AcDbCircle
 10
355.373
 20
111.252
 30
0
 40
0.246667
100
AcDbArc
 50
30
 51
-120
  0
LINE
  5
C0B
330
A02
100
AcDbEntity
  8
Shape2DView002
100
AcDbLine
 10
355.25
 20
111.038
 30
0
 11
355.25
 21
106.712
 31
0
  0
ARC
  5
C0C
330
A02
100
AcDbEntity
  8
Shape2DView002
100
AcDbCircle
 10
355.373
 20
106.498
 30
0
 40
0.246667
100
AcDbArc
 50
120
 51
-30
  0
LINE
  5
C0D
330
A02
100
AcDbEntity
  8
Shape2DView002
100
AcDbLine
 10
355.587
 20
106.375
 30
0
 11
358.613
 21
106.375
 31
0
  0
ARC
  5
C0E
330
A02
100
AcDbEntity
  8
Shape2DView002
100
AcDbCircle
 10
353.312
 20
117.927
 30
0
 40
0.246667
100
AcDbArc
 50
-60
 51
90
  0
ARC
  5
C0F
330
A02
100
AcDbEntity
  8
Shape2DView002
100
AcDbCircle
 10
353.312
 20
117.927
 30
0
 40
0.246667
100
AcDbArc
 50
90
 51
150
  0
LINE
  5
C10
330
A02
100
AcDbEntity
  8
Shape2DView002
100
AcDbLine
 10
348.772
 20
118.05
 30
0
 11
353.098
 21
118.05
 31
0
  0
ARC
  5
C11
330
A02
100
AcDbEntity
  8
Shape2DView002
100
AcDbCircle
 10
348.558
 20
117.927
 30
0
 40
0.246667
100
AcDbArc
 50
30
 51
90
  0
ARC
  5
C12
330
A02
100
AcDbEntity
  8
Shape2DView002
100
AcDbCircle
 10
348.558
 20
117.927
 30
0
 40
0.246667
100
AcDbArc
 50
90
 51
-120
  0
LINE
  5
C13
330
A02
100
AcDbEntity
  8
Shape2DView002
100
AcDbLine
 10
348.435
 20
114.687
 30
0
 11
348.435
 21
117.713
 31
0
  0
ARC
  5
C14
330
A02
100
AcDbEntity
  8
Shape2DView002
100
AcDbCircle
 10
348.558
 20
114.473
 30
0
 40
0.246667
100
AcDbArc
 50
120
 51
-30
  0
LINE
  5
C15
330
A02
100
AcDbEntity
  8
Shape2DView002
100
AcDbLine
 10
348.772
 20
114.35
 30
0
 11
353.098
 21
114.35
 31
0
  0
ARC
  5
C16
330
A02
100
AcDbEntity
  8
Shape2DView002
100
AcDbCircle
 10
353.312
 20
114.473
 30
0
 40
0.246667
100
AcDbArc
 50
-150
 51
60
  0
LINE
  5
C17
330
A02
100
AcDbEntity
  8
Shape2DView002
100
AcDbLine
 10
353.435
 20
114.687
 30
0
 11
353.435
 21
117.713
 31
0
  0
LINE
  5
C18
330
A02
100
AcDbEntity
  8
Shape2DView003
100
AcDbLine
 10
4
 20
152.4
 30
0
 11
8.1
 21
152.4
 31
0
  0
LINE
  5
C19
330
A02
100
AcDbEntity
  8
Shape2DView003
100
AcDbLine
 10
8.1
 20
152.4
 30
0
 11
8.1
 21
148.4
 31
0
  0
LINE
  5
C1A
330
A02
100
AcDbEntity
  8
Shape2DView003
100
AcDbLine
 10
4
 20
157.9
 30
0
 11
4
 21
152.4
 31
0
  0
LINE
  5
C1B
330
A02
100
AcDbEntity
  8
Shape2DView003
100
AcDbLine
 10
13.4
 20
148.4
 30
0
 11
8.1
 21
148.4
 31
0
  0
LINE
  5
C1C
330
A02
100
AcDbEntity
  8
Shape2DView003
100
AcDbLine
 10
4
 20
157.9
 30
0
 11
0
 21
157.9
 31
0
  0
LINE
  5
C1D
330
A02
100
AcDbEntity
  8
Shape2DView003
100
AcDbLine
 10
13.4
 20
152.4
 30
0
 11
13.4
 21
148.4
 31
0
  0
LINE
  5
C1E
330
A02
100
AcDbEntity
  8
Shape2DView003
100
AcDbLine
 10
13.4
 20
152.4
 30
0
 11
17.5
 21
152.4
 31
0
  0
LINE
  5
C1F
330
A02
100
AcDbEntity
  8
Shape2DView003
100
AcDbLine
 10
17.5
 20
152.4
 30
0
 11
17.5
 21
282.8
 31
0
  0
LINE
  5
C20
330
A02
100
AcDbEntity
  8
Shape2DView003
100
AcDbLine
 10
17.5
 20
282.8
 30
0
 11
13.4
 21
282.8
 31
0
  0
LINE
  5
C21
330
A02
100
AcDbEntity
  8
Shape2DView003
100
AcDbLine
 10
8.88178e-16
 20
157.9
 30
0
 11
8.88178e-16
 21
163.2
 31
0
  0
LINE
  5
C22
330
A02
100
AcDbEntity
  8
Shape2DView003
100
AcDbLine
 10
4
 20
174.2
 30
0
 11
4
 21
163.2
 31
0
  0
LINE
  5
C23
330
A02
100
AcDbEntity
  8
Shape2DView003
100
AcDbLine
 10
4
 20
163.2
 30
0
 11
0
 21
163.2
 31
0
  0
LINE
  5
C24
330
A02
100
AcDbEntity
  8
Shape2DView003
100
AcDbLine
 10
4
 20
174.2
 30
0
 11
0
 21
174.2
 31
0
  0
LINE
  5
C25
330
A02
100
AcDbEntity
  8
Shape2DView003
100
AcDbLine
 10
8.88178e-16
 20
174.2
 30
0
 11
8.88178e-16
 21
179.5
 31
0
  0
LINE
  5
C26
330
A02
100
AcDbEntity
  8
Shape2DView003
100
AcDbLine
 10
4
 20
190.5
 30
0
 11
4
 21
179.5
 31
0
  0
LINE
  5
C27
330
A02
100
AcDbEntity
  8
Shape2DView003
100
AcDbLine
 10
4
 20
179.5
 30
0
 11
0
 21
179.5
 31
0
  0
LINE
  5
C28
330
A02
100
AcDbEntity
  8
Shape2DView003
100
AcDbLine
 10
13.4
 20
282.8
 30
0
 11
13.4
 21
286.8
 31
0
  0
LINE
  5
C29
330
A02
100
AcDbEntity
  8
Shape2DView003
100
AcDbLine
 10
4
 20
190.5
 30
0
 11
0
 21
190.5
 31
0
  0
LINE
  5
C2A
330
A02
100
AcDbEntity
  8
Shape2DView003
100
AcDbLine
 10
8.1
 20
286.8
 30
0
 11
13.4
 21
286.8
 31
0
  0
LINE
  5
C2B
330
A02
100
AcDbEntity
  8
Shape2DView003
100
AcDbLine
 10
8.1
 20
282.8
 30
0
 11
8.1
 21
286.8
 31
0
  0
LINE
  5
C2C
330
A02
100
AcDbEntity
  8
Shape2DView003
100
AcDbLine
 10
8.1
 20
282.8
 30
0
 11
4
 21
282.8
 31
0
  0
LINE
  5
C2D
330
A02
100
AcDbEntity
  8
Shape2DView003
100
AcDbLine
 10
4
 20
282.8
 30
0
 11
4
 21
277.3
 31
0
  0
LINE
  5
C2E
330
A02
100
AcDbEntity
  8
Shape2DView003
100
AcDbLine
 10
8.88178e-16
 20
190.5
 30
0
 11
8.88178e-16
 21
195.8
 31
0
  0
LINE
  5
C2F
330
A02
100
AcDbEntity
  8
Shape2DView003
100
AcDbLine
 10
4
 20
206.8
 30
0
 11
4
 21
195.8
 31
0
  0
LINE
  5
C30
330
A02
100
AcDbEntity
  8
Shape2DView003
100
AcDbLine
 10
4
 20
195.8
 30
0
 11
0
 21
195.8
 31
0
  0
LINE
  5
C31
330
A02
100
AcDbEntity
  8
Shape2DView003
100
AcDbLine
 10
4
 20
206.8
 30
0
 11
0
 21
206.8
 31
0
  0
LINE
  5
C32
330
A02
100
AcDbEntity
  8
Shape2DView003
100
AcDbLine
 10
4
 20
277.3
 30
0
 11
0
 21
277.3
 31
0
  0
LINE
  5
C33
330
A02
100
AcDbEntity
  8
Shape2DView003
100
AcDbLine
 10
8.88178e-16
 20
206.8
 30
0
 11
8.88178e-16
 21
212.1
 31
0
  0
LINE
  5
C34
330
A02
100
AcDbEntity
  8
Shape2DView003
100
AcDbLine
 10
4
 20
223.1
 30
0
 11
4
 21
212.1
 31
0
  0
LINE
  5
C35
330
A02
100
AcDbEntity
  8
Shape2DView003
100
AcDbLine
 10
4
 20
212.1
 30
0
 11
0
 21
212.1
 31
0
  0
LINE
  5
C36
330
A02
100
AcDbEntity
  8
Shape2DView003
100
AcDbLine
 10
8.88178e-16
 20
272
 30
0
 11
8.88178e-16
 21
277.3
 31
0
  0
LINE
  5
C37
330
A02
100
AcDbEntity
  8
Shape2DView003
100
AcDbLine
 10
4
 20
272
 30
0
 11
0
 21
272
 31
0
  0
LINE
  5
C38
330
A02
100
AcDbEntity
  8
Shape2DView003
100
AcDbLine
 10
4
 20
272
 30
0
 11
4
 21
261
 31
0
  0
LINE
  5
C39
330
A02
100
AcDbEntity
  8
Shape2DView003
100
AcDbLine
 10
4
 20
223.1
 30
0
 11
0
 21
223.1
 31
0
  0
LINE
  5
C3A
330
A02
100
AcDbEntity
  8
Shape2DView003
100
AcDbLine
 10
4
 20
261
 30
0
 11
0
 21
261
 31
0
  0
LINE
  5
C3B
330
A02
100
AcDbEntity
  8
Shape2DView003
100
AcDbLine
 10
8.88178e-16
 20
223.1
 30
0
 11
8.88178e-16
 21
228.4
 31
0
  0
LINE
  5
C3C
330
A02
100
AcDbEntity
  8
Shape2DView003
100
AcDbLine
 10
4
 20
239.4
 30
0
 11
4
 21
228.4
 31
0
  0
LINE
  5
C3D
330
A02
100
AcDbEntity
  8
Shape2DView003
100
AcDbLine
 10
4
 20
228.4
 30
0
 11
0
 21
228.4
 31
0
  0
LINE
  5
C3E
330
A02
100
AcDbEntity
  8
Shape2DView003
100
AcDbLine
 10
8.88178e-16
 20
255.7
 30
0
 11
8.88178e-16
 21
261
 31
0
  0
LINE
  5
C3F
330
A02
100
AcDbEntity
  8
Shape2DView003
100
AcDbLine
 10
4
 20
255.7
 30
0
 11
0
 21
255.7
 31
0
  0
LINE
  5
C40
330
A02
100
AcDbEntity
  8
Shape2DView003
100
AcDbLine
 10
4
 20
255.7
 30
0
 11
4
 21
244.7
 31
0
  0
LINE
  5
C41
330
A02
100
AcDbEntity
  8
Shape2DView003
100
AcDbLine
 10
4
 20
239.4
 30
0
 11
0
 21
239.4
 31
0
  0
LINE
  5
C42
330
A02
100
AcDbEntity
  8
Shape2DView003
100
AcDbLine
 10
4
 20
244.7
 30
0
 11
0
 21
244.7
 31
0
  0
LINE
  5
C43
330
A02
100
AcDbEntity
  8
Shape2DView003
100
AcDbLine
 10
8.88178e-16
 20
239.4
 30
0
 11
8.88178e-16
 21
244.7
 31
0
  0
ARC
  5
C44
330
A02
100
AcDbEntity
  8
Shape2DView003
100
AcDbCircle
 10
15.7267
 20
247.823
 30
0
 40
0.246667
100
AcDbArc
 50
-150
 51
0
  0
LINE
  5
C45
330
A02
100
AcDbEntity
  8
Shape2DView003
100
AcDbLine
 10
12.487
 20
247.7
 30
0
 11
15.513
 21
247.7
 31
0
  0
ARC
  5
C46
330
A02
100
AcDbEntity
  8
Shape2DView003
100
AcDbCircle
 10
12.2733
 20
247.823
 30
0
 40
0.246667
100
AcDbArc
 50
120
 51
-30
  0
LINE
  5
C47
330
A02
100
AcDbEntity
  8
Shape2DView003
100
AcDbLine
 10
12.15
 20
252.363
 30
0
 11
12.15
 21
248.037
 31
0
  0
ARC
  5
C48
330
A02
100
AcDbEntity
  8
Shape2DView003
100
AcDbCircle
 10
12.2733
 20
252.577
 30
0
 40
0.246667
100
AcDbArc
 50
30
 51
-120
  0
LINE
  5
C49
330
A02
100
AcDbEntity
  8
Shape2DView003
100
AcDbLine
 10
12.487
 20
252.7
 30
0
 11
15.513
 21
252.7
 31
0
  0
ARC
  5
C4A
330
A02
100
AcDbEntity
  8
Shape2DView003
100
AcDbCircle
 10
15.7267
 20
252.577
 30
0
 40
0.246667
100
AcDbArc
 50
0
 51
150
  0
ARC
  5
C4B
330
A02
100
AcDbEntity
  8
Shape2DView003
100
AcDbCircle
 10
15.7267
 20
252.577
 30
0
 40
0.246667
100
AcDbArc
 50
-60
 51
0
  0
LINE
  5
C4C
330
A02
100
AcDbEntity
  8
Shape2DView003
100
AcDbLine
 10
15.85
 20
252.363
 30
0
 11
15.85
 21
248.037
 31
0
  0
ARC
  5
C4D
330
A02
100
AcDbEntity
  8
Shape2DView003
100
AcDbCircle
 10
15.7267
 20
247.823
 30
0
 40
0.246667
100
AcDbArc
 50
0
 51
60
  0
ARC
  5
C4E
330
A02
100
AcDbEntity
  8
Shape2DView003
100
AcDbCircle
 10
15.7267
 20
182.623
 30
0
 40
0.246667
100
AcDbArc
 50
-150
 51
0
  0
LINE
  5
C4F
330
A02
100
AcDbEntity
  8
Shape2DView003
100
AcDbLine
 10
12.487
 20
182.5
 30
0
 11
15.513
 21
182.5
 31
0
  0
ARC
  5
C50
330
A02
100
AcDbEntity
  8
Shape2DView003
100
AcDbCircle
 10
12.2733
 20
182.623
 30
0
 40
0.246667
100
AcDbArc
 50
120
 51
-30
  0
LINE
  5
C51
330
A02
100
AcDbEntity
  8
Shape2DView003
100
AcDbLine
 10
12.15
 20
187.163
 30
0
 11
12.15
 21
182.837
 31
0
  0
ARC
  5
C52
330
A02
100
AcDbEntity
  8
Shape2DView003
100
AcDbCircle
 10
12.2733
 20
187.377
 30
0
 40
0.246667
100
AcDbArc
 50
30
 51
-120
  0
LINE
  5
C53
330
A02
100
AcDbEntity
  8
Shape2DView003
100
AcDbLine
 10
12.487
 20
187.5
 30
0
 11
15.513
 21
187.5
 31
0
  0
ARC
  5
C54
330
A02
100
AcDbEntity
  8
Shape2DView003
100
AcDbCircle
 10
15.7267
 20
187.377
 30
0
 40
0.246667
100
AcDbArc
 50
0
 51
150
  0
ARC
  5
C55
330
A02
100
AcDbEntity
  8
Shape2DView003
100
AcDbCircle
 10
15.7267
 20
187.377
 30
0
 40
0.246667
100
AcDbArc
 50
-60
 51
0
  0
LINE
  5
C56
330
A02
100
AcDbEntity
  8
Shape2DView003
100
AcDbLine
 10
15.85
 20
187.163
 30
0
 11
15.85
 21
182.837
 31
0
  0
ARC
  5
C57
330
A02
100
AcDbEntity
  8
Shape2DView003
100
AcDbCircle
 10
15.7267
 20
182.623
 30
0
 40
0.246667
100
AcDbArc
 50
0
 51
60
  0
LINE
  5
C58
330
A02
100
AcDbEntity
  8
Shape2DView004
100
AcDbLine
 10
31.5
 20
152.4
 30
0
 11
31.5
 21
182.35
 31
0
  0
LINE
  5
C59
330
A02
100
AcDbEntity
  8
Shape2DView004
100
AcDbLine
 10
31.5
 20
182.35
 30
0
 11
27.5
 21
182.35
 31
0
  0
LINE
  5
C5A
330
A02
100
AcDbEntity
  8
Shape2DView004
100
AcDbLine
 10
31.5
 20
152.4
 30
0
 11
55.5833
 21
152.4
 31
0
  0
LINE
  5
C5B
330
A02
100
AcDbEntity
  8
Shape2DView004
100
AcDbLine
 10
27.5
 20
187.65
 30
0
 11
27.5
 21
182.35
 31
0
  0
LINE
  5
C5C
330
A02
100
AcDbEntity
  8
Shape2DView004
100
AcDbLine
 10
55.5833
 20
152.4
 30
0
 11
55.5833
 21
148.4
 31
0
  0
LINE
  5
C5D
330
A02
100
AcDbEntity
  8
Shape2DView004
100
AcDbLine
 10
31.5
 20
187.65
 30
0
 11
27.5
 21
187.65
 31
0
  0
LINE
  5
C5E
330
A02
100
AcDbEntity
  8
Shape2DView004
100
AcDbLine
 10
31.5
 20
187.65
 30
0
 11
31.5
 21
247.55
 31
0
  0
LINE
  5
C5F
330
A02
100
AcDbEntity
  8
Shape2DView004
100
AcDbLine
 10
60.8833
 20
148.4
 30
0
 11
55.5833
 21
148.4
 31
0
  0
LINE
  5
C60
330
A02
100
AcDbEntity
  8
Shape2DView004
100
AcDbLine
 10
60.8833
 20
152.4
 30
0
 11
60.8833
 21
148.4
 31
0
  0
LINE
  5
C61
330
A02
100
AcDbEntity
  8
Shape2DView004
100
AcDbLine
 10
60.8833
 20
152.4
 30
0
 11
109.05
 21
152.4
 31
0
  0
LINE
  5
C62
330
A02
100
AcDbEntity
  8
Shape2DView004
100
AcDbLine
 10
31.5
 20
247.55
 30
0
 11
27.5
 21
247.55
 31
0
  0
LINE
  5
C63
330
A02
100
AcDbEntity
  8
Shape2DView004
100
AcDbLine
 10
109.05
 20
152.4
 30
0
 11
109.05
 21
148.4
 31
0
  0
LINE
  5
C64
330
A02
100
AcDbEntity
  8
Shape2DView004
100
AcDbLine
 10
27.5
 20
252.85
 30
0
 11
27.5
 21
247.55
 31
0
  0
LINE
  5
C65
330
A02
100
AcDbEntity
  8
Shape2DView004
100
AcDbLine
 10
31.5
 20
252.85
 30
0
 11
27.5
 21
252.85
 31
0
  0
LINE
  5
C66
330
A02
100
AcDbEntity
  8
Shape2DView004
100
AcDbLine
 10
31.5
 20
252.85
 30
0
 11
31.5
 21
282.8
 31
0
  0
LINE
  5
C67
330
A02
100
AcDbEntity
  8
Shape2DView004
100
AcDbLine
 10
31.5
 20
282.8
 30
0
 11
55.5833
 21
282.8
 31
0
  0
LINE
  5
C68
330
A02
100
AcDbEntity
  8
Shape2DView004
100
AcDbLine
 10
114.35
 20
148.4
 30
0
 11
109.05
 21
148.4
 31
0
  0
LINE
  5
C69
330
A02
100
AcDbEntity
  8
Shape2DView004
100
AcDbLine
 10
114.35
 20
152.4
 30
0
 11
114.35
 21
148.4
 31
0
  0
LINE
  5
C6A
330
A02
100
AcDbEntity
  8
Shape2DView004
100
AcDbLine
 10
114.35
 20
152.4
 30
0
 11
162.517
 21
152.4
 31
0
  0
LINE
  5
C6B
330
A02
100
AcDbEntity
  8
Shape2DView004
100
AcDbLine
 10
162.517
 20
152.4
 30
0
 11
162.517
 21
148.4
 31
0
  0
LINE
  5
C6C
330
A02
100
AcDbEntity
  8
Shape2DView004
100
AcDbLine
 10
55.5833
 20
282.8
 30
0
 11
55.5833
 21
286.8
 31
0
  0
LINE
  5
C6D
330
A02
100
AcDbEntity
  8
Shape2DView004
100
AcDbLine
 10
167.817
 20
148.4
 30
0
 11
162.517
 21
148.4
 31
0
  0
LINE
  5
C6E
330
A02
100
AcDbEntity
  8
Shape2DView004
100
AcDbLine
 10
167.817
 20
152.4
 30
0
 11
167.817
 21
148.4
 31
0
  0
LINE
  5
C6F
330
A02
100
AcDbEntity
  8
Shape2DView004
100
AcDbLine
 10
167.817
 20
152.4
 30
0
 11
191.9
 21
152.4
 31
0
  0
LINE
  5
C70
330
A02
100
AcDbEntity
  8
Shape2DView004
100
AcDbLine
 10
191.9
 20
152.4
 30
0
 11
191.9
 21
182.35
 31
0
  0
LINE
  5
C71
330
A02
100
AcDbEntity
  8
Shape2DView004
100
AcDbLine
 10
55.5833
 20
286.8
 30
0
 11
60.8833
 21
286.8
 31
0
  0
LINE
  5
C72
330
A02
100
AcDbEntity
  8
Shape2DView004
100
AcDbLine
 10
60.8833
 20
282.8
 30
0
 11
109.05
 21
282.8
 31
0
  0
LINE
  5
C73
330
A02
100
AcDbEntity
  8
Shape2DView004
100
AcDbLine
 10
60.8833
 20
282.8
 30
0
 11
60.8833
 21
286.8
 31
0
  0
LINE
  5
C74
330
A02
100
AcDbEntity
  8
Shape2DView004
100
AcDbLine
 10
109.05
 20
282.8
 30
0
 11
109.05
 21
286.8
 31
0
  0
LINE
  5
C75
330
A02
100
AcDbEntity
  8
Shape2DView004
100
AcDbLine
 10
191.9
 20
182.35
 30
0
 11
195.9
 21
182.35
 31
0
  0
LINE
  5
C76
330
A02
100
AcDbEntity
  8
Shape2DView004
100
AcDbLine
 10
109.05
 20
286.8
 30
0
 11
114.35
 21
286.8
 31
0
  0
LINE
  5
C77
330
A02
100
AcDbEntity
  8
Shape2DView004
100
AcDbLine
 10
114.35
 20
282.8
 30
0
 11
162.517
 21
282.8
 31
0
  0
LINE
  5
C78
330
A02
100
AcDbEntity
  8
Shape2DView004
100
AcDbLine
 10
114.35
 20
282.8
 30
0
 11
114.35
 21
286.8
 31
0
  0
LINE
  5
C79
330
A02
100
AcDbEntity
  8
Shape2DView004
100
AcDbLine
 10
195.9
 20
187.65
 30
0
 11
195.9
 21
182.35
 31
0
  0
LINE
  5
C7A
330
A02
100
AcDbEntity
  8
Shape2DView004
100
AcDbLine
 10
191.9
 20
187.65
 30
0
 11
195.9
 21
187.65
 31
0
  0
LINE
  5
C7B
330
A02
100
AcDbEntity
  8
Shape2DView004
100
AcDbLine
 10
191.9
 20
187.65
 30
0
 11
191.9
 21
247.55
 31
0
  0
LINE
  5
C7C
330
A02
100
AcDbEntity
  8
Shape2DView004
100
AcDbLine
 10
162.517
 20
282.8
 30
0
 11
162.517
 21
286.8
 31
0
  0
LINE
  5
C7D
330
A02
100
AcDbEntity
  8
Shape2DView004
100
AcDbLine
 10
191.9
 20
247.55
 30
0
 11
195.9
 21
247.55
 31
0
  0
LINE
  5
C7E
330
A02
100
AcDbEntity
  8
Shape2DView004
100
AcDbLine
 10
162.517
 20
286.8
 30
0
 11
167.817
 21
286.8
 31
0
  0
LINE
  5
C7F
330
A02
100
AcDbEntity
  8
Shape2DView004
100
AcDbLine
 10
167.817
 20
282.8
 30
0
 11
191.9
 21
282.8
 31
0
  0
LINE
  5
C80
330
A02
100
AcDbEntity
  8
Shape2DView004
100
AcDbLine
 10
191.9
 20
252.85
 30
0
 11
191.9
 21
282.8
 31
0
  0
LINE
  5
C81
330
A02
100
AcDbEntity
  8
Shape2DView004
100
AcDbLine
 10
167.817
 20
282.8
 30
0
 11
167.817
 21
286.8
 31
0
  0
LINE
  5
C82
330
A02
100
AcDbEntity
  8
Shape2DView004
100
AcDbLine
 10
195.9
 20
252.85
 30
0
 11
195.9
 21
247.55
 31
0
  0
LINE
  5
C83
330
A02
100
AcDbEntity
  8
Shape2DView004
100
AcDbLine
 10
191.9
 20
252.85
 30
0
 11
195.9
 21
252.85
 31
0
  0
LINE
  5
C84
330
A02
100
AcDbEntity
  8
Shape2DView004
100
AcDbLine
 10
176.7
 20
172.6
 30
0
 11
176.7
 21
175.425
 31
0
  0
LINE
  5
C85
330
A02
100
AcDbEntity
  8
Shape2DView004
100
AcDbLine
 10
176.7
 20
172.6
 30
0
 11
175.035
 21
172.6
 31
0
  0
LINE
  5
C86
330
A02
100
AcDbEntity
  8
Shape2DView004
100
AcDbLine
 10
175.035
 20
172.6
 30
0
 11
175.035
 21
169.101
 31
0
  0
ARC
  5
C87
330
A02
100
AcDbEntity
  8
Shape2DView004
100
AcDbCircle
 10
174.907
 20
168.878
 30
0
 40
0.256667
100
AcDbArc
 50
-90
 51
60
  0
ARC
  5
C88
330
A02
100
AcDbEntity
  8
Shape2DView004
100
AcDbCircle
 10
174.907
 20
168.878
 30
0
 40
0.256667
100
AcDbArc
 50
-150
 51
-90
  0
LINE
  5
C89
330
A02
100
AcDbEntity
  8
Shape2DView004
100
AcDbLine
 10
174.684
 20
168.75
 30
0
 11
170.386
 21
168.75
 31
0
  0
ARC
  5
C8A
330
A02
100
AcDbEntity
  8
Shape2DView004
100
AcDbCircle
 10
170.163
 20
168.878
 30
0
 40
0.256667
100
AcDbArc
 50
-90
 51
-30
  0
ARC
  5
C8B
330
A02
100
AcDbEntity
  8
Shape2DView004
100
AcDbCircle
 10
170.163
 20
168.878
 30
0
 40
0.256667
100
AcDbArc
 50
120
 51
-90
  0
LINE
  5
C8C
330
A02
100
AcDbEntity
  8
Shape2DView004
100
AcDbLine
 10
170.035
 20
172.6
 30
0
 11
170.035
 21
169.101
 31
0
  0
LINE
  5
C8D
330
A02
100
AcDbEntity
  8
Shape2DView004
100
AcDbLine
 10
170.035
 20
172.6
 30
0
 11
114.2
 21
172.6
 31
0
  0
LINE
  5
C8E
330
A02
100
AcDbEntity
  8
Shape2DView004
100
AcDbLine
 10
114.2
 20
172.6
 30
0
 11
114.2
 21
169.101
 31
0
  0
ARC
  5
C8F
330
A02
100
AcDbEntity
  8
Shape2DView004
100
AcDbCircle
 10
114.072
 20
168.878
 30
0
 40
0.256667
100
AcDbArc
 50
-90
 51
60
  0
ARC
  5
C90
330
A02
100
AcDbEntity
  8
Shape2DView004
100
AcDbCircle
 10
114.072
 20
168.878
 30
0
 40
0.256667
100
AcDbArc
 50
-150
 51
-90
  0
LINE
  5
C91
330
A02
100
AcDbEntity
  8
Shape2DView004
100
AcDbLine
 10
113.849
 20
168.75
 30
0
 11
109.551
 21
168.75
 31
0
  0
ARC
  5
C92
330
A02
100
AcDbEntity
  8
Shape2DView004
100
AcDbCircle
 10
109.328
 20
168.878
 30
0
 40
0.256667
100
AcDbArc
 50
-90
 51
-30
  0
ARC
  5
C93
330
A02
100
AcDbEntity
  8
Shape2DView004
100
AcDbCircle
 10
109.328
 20
168.878
 30
0
 40
0.256667
100
AcDbArc
 50
120
 51
-90
  0
LINE
  5
C94
330
A02
100
AcDbEntity
  8
Shape2DView004
100
AcDbLine
 10
109.2
 20
172.6
 30
0
 11
109.2
 21
169.101
 31
0
  0
LINE
  5
C95
330
A02
100
AcDbEntity
  8
Shape2DView004
100
AcDbLine
 10
109.2
 20
172.6
 30
0
 11
53.365
 21
172.6
 31
0
  0
LINE
  5
C96
330
A02
100
AcDbEntity
  8
Shape2DView004
100
AcDbLine
 10
53.365
 20
172.6
 30
0
 11
53.365
 21
169.101
 31
0
  0
ARC
  5
C97
330
A02
100
AcDbEntity
  8
Shape2DView004
100
AcDbCircle
 10
53.2367
 20
168.878
 30
0
 40
0.256667
100
AcDbArc
 50
-90
 51
60
  0
ARC
  5
C98
330
A02
100
AcDbEntity
  8
Shape2DView004
100
AcDbCircle
 10
53.2367
 20
168.878
 30
0
 40
0.256667
100
AcDbArc
 50
-150
 51
-90
  0
LINE
  5
C99
330
A02
100
AcDbEntity
  8
Shape2DView004
100
AcDbLine
 10
53.0144
 20
168.75
 30
0
 11
48.7156
 21
168.75
 31
0
  0
ARC
  5
C9A
330
A02
100
AcDbEntity
  8
Shape2DView004
100
AcDbCircle
 10
48.4933
 20
168.878
 30
0
 40
0.256667
100
AcDbArc
 50
-90
 51
-30
  0
ARC
  5
C9B
330
A02
100
AcDbEntity
  8
Shape2DView004
100
AcDbCircle
 10
48.4933
 20
168.878
 30
0
 40
0.256667
100
AcDbArc
 50
120
 51
-90
  0
LINE
  5
C9C
330
A02
100
AcDbEntity
  8
Shape2DView004
100
AcDbLine
 10
48.365
 20
172.6
 30
0
 11
48.365
 21
169.101
 31
0
  0
LINE
  5
C9D
330
A02
100
AcDbEntity
  8
Shape2DView004
100
AcDbLine
 10
48.365
 20
172.6
 30
0
 11
46.7
 21
172.6
 31
0
  0
LINE
  5
C9E
330
A02
100
AcDbEntity
  8
Shape2DView004
100
AcDbLine
 10
46.7
 20
172.6
 30
0
 11
46.7
 21
175.425
 31
0
  0
LINE
  5
C9F
330
A02
100
AcDbEntity
  8
Shape2DView004
100
AcDbLine
 10
46.7
 20
175.425
 30
0
 11
43.2006
 21
175.425
 31
0
  0
ARC
  5
CA0
330
A02
100
AcDbEntity
  8
Shape2DView004
100
AcDbCircle
 10
42.9783
 20
175.553
 30
0
 40
0.256667
100
AcDbArc
 50
180
 51
-30
  0
ARC
  5
CA1
330
A02
100
AcDbEntity
  8
Shape2DView004
100
AcDbCircle
 10
42.9783
 20
175.553
 30
0
 40
0.256667
100
AcDbArc
 50
120
 51
180
  0
LINE
  5
CA2
330
A02
100
AcDbEntity
  8
Shape2DView004
100
AcDbLine
 10
42.85
 20
175.776
 30
0
 11
42.85
 21
180.074
 31
0
  0
ARC
  5
CA3
330
A02
100
AcDbEntity
  8
Shape2DView004
100
AcDbCircle
 10
42.9783
 20
180.297
 30
0
 40
0.256667
100
AcDbArc
 50
180
 51
-120
  0
ARC
  5
CA4
330
A02
100
AcDbEntity
  8
Shape2DView004
100
AcDbCircle
 10
42.9783
 20
180.297
 30
0
 40
0.256667
100
AcDbArc
 50
30
 51
180
  0
LINE
  5
CA5
330
A02
100
AcDbEntity
  8
Shape2DView004
100
AcDbLine
 10
46.7
 20
180.425
 30
0
 11
43.2006
 21
180.425
 31
0
  0
LINE
  5
CA6
330
A02
100
AcDbEntity
  8
Shape2DView004
100
AcDbLine
 10
46.7
 20
180.425
 30
0
 11
46.7
 21
215.1
 31
0
  0
LINE
  5
CA7
330
A02
100
AcDbEntity
  8
Shape2DView004
100
AcDbLine
 10
46.7
 20
215.1
 30
0
 11
43.2006
 21
215.1
 31
0
  0
ARC
  5
CA8
330
A02
100
AcDbEntity
  8
Shape2DView004
100
AcDbCircle
 10
42.9783
 20
215.228
 30
0
 40
0.256667
100
AcDbArc
 50
180
 51
-30
  0
ARC
  5
CA9
330
A02
100
AcDbEntity
  8
Shape2DView004
100
AcDbCircle
 10
42.9783
 20
215.228
 30
0
 40
0.256667
100
AcDbArc
 50
120
 51
180
  0
LINE
  5
CAA
330
A02
100
AcDbEntity
  8
Shape2DView004
100
AcDbLine
 10
42.85
 20
215.451
 30
0
 11
42.85
 21
219.749
 31
0
  0
ARC
  5
CAB
330
A02
100
AcDbEntity
  8
Shape2DView004
100
AcDbCircle
 10
42.9783
 20
219.972
 30
0
 40
0.256667
100
AcDbArc
 50
180
 51
-120
  0
ARC
  5
CAC
330
A02
100
AcDbEntity
  8
Shape2DView004
100
AcDbCircle
 10
42.9783
 20
219.972
 30
0
 40
0.256667
100
AcDbArc
 50
30
 51
180
  0
LINE
  5
CAD
330
A02
100
AcDbEntity
  8
Shape2DView004
100
AcDbLine
 10
46.7
 20
220.1
 30
0
 11
43.2006
 21
220.1
 31
0
  0
LINE
  5
CAE
330
A02
100
AcDbEntity
  8
Shape2DView004
100
AcDbLine
 10
46.7
 20
220.1
 30
0
 11
46.7
 21
254.775
 31
0
  0
LINE
  5
CAF
330
A02
100
AcDbEntity
  8
Shape2DView004
100
AcDbLine
 10
46.7
 20
254.775
 30
0
 11
43.2006
 21
254.775
 31
0
  0
ARC
  5
CB0
330
A02
100
AcDbEntity
  8
Shape2DView004
100
AcDbCircle
 10
42.9783
 20
254.903
 30
0
 40
0.256667
100
AcDbArc
 50
180
 51
-30
  0
ARC
  5
CB1
330
A02
100
AcDbEntity
  8
Shape2DView004
100
AcDbCircle
 10
42.9783
 20
254.903
 30
0
 40
0.256667
100
AcDbArc
 50
120
 51
180
  0
LINE
  5
CB2
330
A02
100
AcDbEntity
  8
Shape2DView004
100
AcDbLine
 10
42.85
 20
255.126
 30
0
 11
42.85
 21
259.424
 31
0
  0
ARC
  5
CB3
330
A02
100
AcDbEntity
  8
Shape2DView004
100
AcDbCircle
 10
42.9783
 20
259.647
 30
0
 40
0.256667
100
AcDbArc
 50
180
 51
-120
  0
ARC
  5
CB4
330
A02
100
AcDbEntity
  8
Shape2DView004
100
AcDbCircle
 10
42.9783
 20
259.647
 30
0
 40
0.256667
100
AcDbArc
 50
30
 51
180
  0
LINE
  5
CB5
330
A02
100
AcDbEntity
  8
Shape2DView004
100
AcDbLine
 10
46.7
 20
259.775
 30
0
 11
43.2006
 21
259.775
 31
0
  0
LINE
  5
CB6
330
A02
100
AcDbEntity
  8
Shape2DView004
100
AcDbLine
 10
46.7
 20
259.775
 30
0
 11
46.7
 21
262.6
 31
0
  0
LINE
  5
CB7
330
A02
100
AcDbEntity
  8
Shape2DView004
100
AcDbLine
 10
48.365
 20
262.6
 30
0
 11
46.7
 21
262.6
 31
0
  0
LINE
  5
CB8
330
A02
100
AcDbEntity
  8
Shape2DView004
100
AcDbLine
 10
48.365
 20
266.099
 30
0
 11
48.365
 21
262.6
 31
0
  0
ARC
  5
CB9
330
A02
100
AcDbEntity
  8
Shape2DView004
100
AcDbCircle
 10
48.4933
 20
266.322
 30
0
 40
0.256667
100
AcDbArc
 50
30
 51
-120
  0
LINE
  5
CBA
330
A02
100
AcDbEntity
  8
Shape2DView004
100
AcDbLine
 10
53.0144
 20
266.45
 30
0
 11
48.7156
 21
266.45
 31
0
  0
ARC
  5
CBB
330
A02
100
AcDbEntity
  8
Shape2DView004
100
AcDbCircle
 10
53.2367
 20
266.322
 30
0
 40
0.256667
100
AcDbArc
 50
-60
 51
150
  0
LINE
  5
CBC
330
A02
100
AcDbEntity
  8
Shape2DView004
100
AcDbLine
 10
53.365
 20
266.099
 30
0
 11
53.365
 21
262.6
 31
0
  0
LINE
  5
CBD
330
A02
100
AcDbEntity
  8
Shape2DView004
100
AcDbLine
 10
109.2
 20
262.6
 30
0
 11
53.365
 21
262.6
 31
0
  0
LINE
  5
CBE
330
A02
100
AcDbEntity
  8
Shape2DView004
100
AcDbLine
 10
109.2
 20
266.099
 30
0
 11
109.2
 21
262.6
 31
0
  0
ARC
  5
CBF
330
A02
100
AcDbEntity
  8
Shape2DView004
100
AcDbCircle
 10
109.328
 20
266.322
 30
0
 40
0.256667
100
AcDbArc
 50
30
 51
-120
  0
LINE
  5
CC0
330
A02
100
AcDbEntity
  8
Shape2DView004
100
AcDbLine
 10
113.849
 20
266.45
 30
0
 11
109.551
 21
266.45
 31
0
  0
ARC
  5
CC1
330
A02
100
AcDbEntity
  8
Shape2DView004
100
AcDbCircle
 10
114.072
 20
266.322
 30
0
 40
0.256667
100
AcDbArc
 50
-60
 51
150
  0
LINE
  5
CC2
330
A02
100
AcDbEntity
  8
Shape2DView004
100
AcDbLine
 10
114.2
 20
266.099
 30
0
 11
114.2
 21
262.6
 31
0
  0
LINE
  5
CC3
330
A02
100
AcDbEntity
  8
Shape2DView004
100
AcDbLine
 10
170.035
 20
262.6
 30
0
 11
114.2
 21
262.6
 31
0
  0
LINE
  5
CC4
330
A02
100
AcDbEntity
  8
Shape2DView004
100
AcDbLine
 10
170.035
 20
266.099
 30
0
 11
170.035
 21
262.6
 31
0
  0
ARC
  5
CC5
330
A02
100
AcDbEntity
  8
Shape2DView004
100
AcDbCircle
 10
170.163
 20
266.322
 30
0
 40
0.256667
100
AcDbArc
 50
30
 51
-120
  0
LINE
  5
CC6
330
A02
100
AcDbEntity
  8
Shape2DView004
100
AcDbLine
 10
174.684
 20
266.45
 30
0
 11
170.386
 21
266.45
 31
0
  0
ARC
  5
CC7
330
A02
100
AcDbEntity
  8
Shape2DView004
100
AcDbCircle
 10
174.907
 20
266.322
 30
0
 40
0.256667
100
AcDbArc
 50
-60
 51
150
  0
LINE
  5
CC8
330
A02
100
AcDbEntity
  8
Shape2DView004
100
AcDbLine
 10
175.035
 20
266.099
 30
0
 11
175.035
 21
262.6
 31
0
  0
LINE
  5
CC9
330
A02
100
AcDbEntity
  8
Shape2DView004
100
AcDbLine
 10
176.7
 20
262.6
 30
0
 11
175.035
 21
262.6
 31
0
  0
LINE
  5
CCA
330
A02
100
AcDbEntity
  8
Shape2DView004
100
AcDbLine
 10
176.7
 20
259.775
 30
0
 11
176.7
 21
262.6
 31
0
  0
LINE
  5
CCB
330
A02
100
AcDbEntity
  8
Shape2DView004
100
AcDbLine
 10
180.199
 20
259.775
 30
0
 11
176.7
 21
259.775
 31
0
  0
ARC
  5
CCC
330
A02
100
AcDbEntity
  8
Shape2DView004
100
AcDbCircle
 10
180.422
 20
259.647
 30
0
 40
0.256667
100
AcDbArc
 50
-60
 51
150
  0
LINE
  5
CCD
330
A02
100
AcDbEntity
  8
Shape2DView004
100
AcDbLine
 10
180.55
 20
255.126
 30
0
 11
180.55
 21
259.424
 31
0
  0
ARC
  5
CCE
330
A02
100
AcDbEntity
  8
Shape2DView004
100
AcDbCircle
 10
180.422
 20
254.903
 30
0
 40
0.256667
100
AcDbArc
 50
-150
 51
60
  0
LINE
  5
CCF
330
A02
100
AcDbEntity
  8
Shape2DView004
100
AcDbLine
 10
180.199
 20
254.775
 30
0
 11
176.7
 21
254.775
 31
0
  0
LINE
  5
CD0
330
A02
100
AcDbEntity
  8
Shape2DView004
100
AcDbLine
 10
176.7
 20
220.1
 30
0
 11
176.7
 21
254.775
 31
0
  0
LINE
  5
CD1
330
A02
100
AcDbEntity
  8
Shape2DView004
100
AcDbLine
 10
180.199
 20
220.1
 30
0
 11
176.7
 21
220.1
 31
0
  0
ARC
  5
CD2
330
A02
100
AcDbEntity
  8
Shape2DView004
100
AcDbCircle
 10
180.422
 20
219.972
 30
0
 40
0.256667
100
AcDbArc
 50
-60
 51
150
  0
LINE
  5
CD3
330
A02
100
AcDbEntity
  8
Shape2DView004
100
AcDbLine
 10
180.55
 20
215.451
 30
0
 11
180.55
 21
219.749
 31
0
  0
ARC
  5
CD4
330
A02
100
AcDbEntity
  8
Shape2DView004
100
AcDbCircle
 10
180.422
 20
215.228
 30
0
 40
0.256667
100
AcDbArc
 50
-150
 51
60
  0
LINE
  5
CD5
330
A02
100
AcDbEntity
  8
Shape2DView004
100
AcDbLine
 10
180.199
 20
215.1
 30
0
 11
176.7
 21
215.1
 31
0
  0
LINE
  5
CD6
330
A02
100
AcDbEntity
  8
Shape2DView004
100
AcDbLine
 10
176.7
 20
180.425
 30
0
 11
176.7
 21
215.1
 31
0
  0
LINE
  5
CD7
330
A02
100
AcDbEntity
  8
Shape2DView004
100
AcDbLine
 10
180.199
 20
180.425
 30
0
 11
176.7
 21
180.425
 31
0
  0
ARC
  5
CD8
330
A02
100
AcDbEntity
  8
Shape2DView004
100
AcDbCircle
 10
180.422
 20
180.297
 30
0
 40
0.256667
100
AcDbArc
 50
-60
 51
150
  0
LINE
  5
CD9
330
A02
100
AcDbEntity
  8
Shape2DView004
100
AcDbLine
 10
180.55
 20
175.776
 30
0
 11
180.55
 21
180.074
 31
0
  0
ARC
  5
CDA
330
A02
100
AcDbEntity
  8
Shape2DView004
100
AcDbCircle
 10
180.422
 20
175.553
 30
0
 40
0.256667
100
AcDbArc
 50
-150
 51
60
  0
LINE
  5
CDB
330
A02
100
AcDbEntity
  8
Shape2DView004
100
AcDbLine
 10
180.199
 20
175.425
 30
0
 11
176.7
 21
175.425
 31
0
  0
LINE
  5
CDC
330
A02
100
AcDbEntity
  8
Shape2DView005
100
AcDbLine
 10
205.9
 20
152.4
 30
0
 11
205.9
 21
156.65
 31
0
  0
LINE
  5
CDD
330
A02
100
AcDbEntity
  8
Shape2DView005
100
AcDbLine
 10
205.9
 20
156.65
 30
0
 11
209.399
 21
156.65
 31
0
  0
LINE
  5
CDE
330
A02
100
AcDbEntity
  8
Shape2DView005
100
AcDbLine
 10
211.67
 20
152.4
 30
0
 11
205.9
 21
152.4
 31
0
  0
LINE
  5
CDF
330
A02
100
AcDbEntity
  8
Shape2DView005
100
AcDbLine
 10
211.67
 20
152.4
 30
0
 11
211.67
 21
148.4
 31
0
  0
LINE
  5
CE0
330
A02
100
AcDbEntity
  8
Shape2DView005
100
AcDbLine
 10
211.67
 20
148.4
 30
0
 11
216.97
 21
148.4
 31
0
  0
LINE
  5
CE1
330
A02
100
AcDbEntity
  8
Shape2DView005
100
AcDbLine
 10
228.51
 20
152.4
 30
0
 11
216.97
 21
152.4
 31
0
  0
LINE
  5
CE2
330
A02
100
AcDbEntity
  8
Shape2DView005
100
AcDbLine
 10
216.97
 20
152.4
 30
0
 11
216.97
 21
148.4
 31
0
  0
LINE
  5
CE3
330
A02
100
AcDbEntity
  8
Shape2DView005
100
AcDbLine
 10
228.51
 20
152.4
 30
0
 11
228.51
 21
148.4
 31
0
  0
LINE
  5
CE4
330
A02
100
AcDbEntity
  8
Shape2DView005
100
AcDbLine
 10
228.51
 20
148.4
 30
0
 11
233.81
 21
148.4
 31
0
  0
LINE
  5
CE5
330
A02
100
AcDbEntity
  8
Shape2DView005
100
AcDbLine
 10
245.35
 20
152.4
 30
0
 11
233.81
 21
152.4
 31
0
  0
LINE
  5
CE6
330
A02
100
AcDbEntity
  8
Shape2DView005
100
AcDbLine
 10
233.81
 20
152.4
 30
0
 11
233.81
 21
148.4
 31
0
  0
LINE
  5
CE7
330
A02
100
AcDbEntity
  8
Shape2DView005
100
AcDbLine
 10
245.35
 20
152.4
 30
0
 11
245.35
 21
148.4
 31
0
  0
LINE
  5
CE8
330
A02
100
AcDbEntity
  8
Shape2DView005
100
AcDbLine
 10
245.35
 20
148.4
 30
0
 11
250.65
 21
148.4
 31
0
  0
LINE
  5
CE9
330
A02
100
AcDbEntity
  8
Shape2DView005
100
AcDbLine
 10
262.19
 20
152.4
 30
0
 11
250.65
 21
152.4
 31
0
  0
LINE
  5
CEA
330
A02
100
AcDbEntity
  8
Shape2DView005
100
AcDbLine
 10
250.65
 20
152.4
 30
0
 11
250.65
 21
148.4
 31
0
  0
LINE
  5
CEB
330
A02
100
AcDbEntity
  8
Shape2DView005
100
AcDbLine
 10
262.19
 20
152.4
 30
0
 11
262.19
 21
148.4
 31
0
  0
LINE
  5
CEC
330
A02
100
AcDbEntity
  8
Shape2DView005
100
AcDbLine
 10
262.19
 20
148.4
 30
0
 11
267.49
 21
148.4
 31
0
  0
LINE
  5
CED
330
A02
100
AcDbEntity
  8
Shape2DView005
100
AcDbLine
 10
279.03
 20
152.4
 30
0
 11
267.49
 21
152.4
 31
0
  0
LINE
  5
CEE
330
A02
100
AcDbEntity
  8
Shape2DView005
100
AcDbLine
 10
267.49
 20
152.4
 30
0
 11
267.49
 21
148.4
 31
0
  0
LINE
  5
CEF
330
A02
100
AcDbEntity
  8
Shape2DView005
100
AcDbLine
 10
279.03
 20
152.4
 30
0
 11
279.03
 21
148.4
 31
0
  0
LINE
  5
CF0
330
A02
100
AcDbEntity
  8
Shape2DView005
100
AcDbLine
 10
279.03
 20
148.4
 30
0
 11
284.33
 21
148.4
 31
0
  0
LINE
  5
CF1
330
A02
100
AcDbEntity
  8
Shape2DView005
100
AcDbLine
 10
295.87
 20
152.4
 30
0
 11
284.33
 21
152.4
 31
0
  0
LINE
  5
CF2
330
A02
100
AcDbEntity
  8
Shape2DView005
100
AcDbLine
 10
284.33
 20
152.4
 30
0
 11
284.33
 21
148.4
 31
0
  0
LINE
  5
CF3
330
A02
100
AcDbEntity
  8
Shape2DView005
100
AcDbLine
 10
295.87
 20
152.4
 30
0
 11
295.87
 21
148.4
 31
0
  0
LINE
  5
CF4
330
A02
100
AcDbEntity
  8
Shape2DView005
100
AcDbLine
 10
295.87
 20
148.4
 30
0
 11
301.17
 21
148.4
 31
0
  0
LINE
  5
CF5
330
A02
100
AcDbEntity
  8
Shape2DView005
100
AcDbLine
 10
312.71
 20
152.4
 30
0
 11
301.17
 21
152.4
 31
0
  0
LINE
  5
CF6
330
A02
100
AcDbEntity
  8
Shape2DView005
100
AcDbLine
 10
301.17
 20
152.4
 30
0
 11
301.17
 21
148.4
 31
0
  0
LINE
  5
CF7
330
A02
100
AcDbEntity
  8
Shape2DView005
100
AcDbLine
 10
312.71
 20
152.4
 30
0
 11
312.71
 21
148.4
 31
0
  0
LINE
  5
CF8
330
A02
100
AcDbEntity
  8
Shape2DView005
100
AcDbLine
 10
312.71
 20
148.4
 30
0
 11
318.01
 21
148.4
 31
0
  0
LINE
  5
CF9
330
A02
100
AcDbEntity
  8
Shape2DView005
100
AcDbLine
 10
329.55
 20
152.4
 30
0
 11
318.01
 21
152.4
 31
0
  0
LINE
  5
CFA
330
A02
100
AcDbEntity
  8
Shape2DView005
100
AcDbLine
 10
318.01
 20
152.4
 30
0
 11
318.01
 21
148.4
 31
0
  0
LINE
  5
CFB
330
A02
100
AcDbEntity
  8
Shape2DView005
100
AcDbLine
 10
329.55
 20
152.4
 30
0
 11
329.55
 21
148.4
 31
0
  0
LINE
  5
CFC
330
A02
100
AcDbEntity
  8
Shape2DView005
100
AcDbLine
 10
329.55
 20
148.4
 30
0
 11
334.85
 21
148.4
 31
0
  0
LINE
  5
CFD
330
A02
100
AcDbEntity
  8
Shape2DView005
100
AcDbLine
 10
346.39
 20
152.4
 30
0
 11
334.85
 21
152.4
 31
0
  0
LINE
  5
CFE
330
A02
100
AcDbEntity
  8
Shape2DView005
100
AcDbLine
 10
334.85
 20
152.4
 30
0
 11
334.85
 21
148.4
 31
0
  0
LINE
  5
CFF
330
A02
100
AcDbEntity
  8
Shape2DView005
100
AcDbLine
 10
346.39
 20
152.4
 30
0
 11
346.39
 21
148.4
 31
0
  0
LINE
  5
D00
330
A02
100
AcDbEntity
  8
Shape2DView005
100
AcDbLine
 10
346.39
 20
148.4
 30
0
 11
351.69
 21
148.4
 31
0
  0
LINE
  5
D01
330
A02
100
AcDbEntity
  8
Shape2DView005
100
AcDbLine
 10
363.23
 20
152.4
 30
0
 11
351.69
 21
152.4
 31
0
  0
LINE
  5
D02
330
A02
100
AcDbEntity
  8
Shape2DView005
100
AcDbLine
 10
351.69
 20
152.4
 30
0
 11
351.69
 21
148.4
 31
0
  0
LINE
  5
D03
330
A02
100
AcDbEntity
  8
Shape2DView005
100
AcDbLine
 10
363.23
 20
152.4
 30
0
 11
363.23
 21
148.4
 31
0
  0
LINE
  5
D04
330
A02
100
AcDbEntity
  8
Shape2DView005
100
AcDbLine
 10
363.23
 20
148.4
 30
0
 11
368.53
 21
148.4
 31
0
  0
LINE
  5
D05
330
A02
100
AcDbEntity
  8
Shape2DView005
100
AcDbLine
 10
374.3
 20
152.4
 30
0
 11
368.53
 21
152.4
 31
0
  0
LINE
  5
D06
330
A02
100
AcDbEntity
  8
Shape2DView005
100
AcDbLine
 10
374.3
 20
156.65
 30
0
 11
374.3
 21
152.4
 31
0
  0
LINE
  5
D07
330
A02
100
AcDbEntity
  8
Shape2DView005
100
AcDbLine
 10
370.801
 20
156.65
 30
0
 11
374.3
 21
156.65
 31
0
  0
ARC
  5
D08
330
A02
100
AcDbEntity
  8
Shape2DView005
100
AcDbCircle
 10
370.578
 20
156.778
 30
0
 40
0.256667
100
AcDbArc
 50
120
 51
-30
  0
LINE
  5
D09
330
A02
100
AcDbEntity
  8
Shape2DView005
100
AcDbLine
 10
370.45
 20
161.299
 30
0
 11
370.45
 21
157.001
 31
0
  0
ARC
  5
D0A
330
A02
100
AcDbEntity
  8
Shape2DView005
100
AcDbCircle
 10
370.578
 20
161.522
 30
0
 40
0.256667
100
AcDbArc
 50
30
 51
-120
  0
LINE
  5
D0B
330
A02
100
AcDbEntity
  8
Shape2DView005
100
AcDbLine
 10
370.801
 20
161.65
 30
0
 11
374.3
 21
161.65
 31
0
  0
LINE
  5
D0C
330
A02
100
AcDbEntity
  8
Shape2DView005
100
AcDbLine
 10
374.3
 20
165.9
 30
0
 11
374.3
 21
161.65
 31
0
  0
LINE
  5
D0D
330
A02
100
AcDbEntity
  8
Shape2DView005
100
AcDbLine
 10
205.9
 20
165.9
 30
0
 11
374.3
 21
165.9
 31
0
  0
LINE
  5
D0E
330
A02
100
AcDbEntity
  8
Shape2DView005
100
AcDbLine
 10
205.9
 20
161.65
 30
0
 11
205.9
 21
165.9
 31
0
  0
LINE
  5
D0F
330
A02
100
AcDbEntity
  8
Shape2DView005
100
AcDbLine
 10
205.9
 20
161.65
 30
0
 11
209.399
 21
161.65
 31
0
  0
LINE
  5
D10
330
A02
100
AcDbEntity
  8
Shape2DView005
100
AcDbLine
 10
368.53
 20
152.4
 30
0
 11
368.53
 21
148.4
 31
0
  0
ARC
  5
D11
330
A02
100
AcDbEntity
  8
Shape2DView005
100
AcDbCircle
 10
209.622
 20
161.522
 30
0
 40
0.256667
100
AcDbArc
 50
0
 51
150
  0
ARC
  5
D12
330
A02
100
AcDbEntity
  8
Shape2DView005
100
AcDbCircle
 10
209.622
 20
161.522
 30
0
 40
0.256667
100
AcDbArc
 50
-60
 51
0
  0
LINE
  5
D13
330
A02
100
AcDbEntity
  8
Shape2DView005
100
AcDbLine
 10
209.75
 20
161.299
 30
0
 11
209.75
 21
157.001
 31
0
  0
ARC
  5
D14
330
A02
100
AcDbEntity
  8
Shape2DView005
100
AcDbCircle
 10
209.622
 20
156.778
 30
0
 40
0.256667
100
AcDbArc
 50
0
 51
60
  0
ARC
  5
D15
330
A02
100
AcDbEntity
  8
Shape2DView005
100
AcDbCircle
 10
209.622
 20
156.778
 30
0
 40
0.256667
100
AcDbArc
 50
-150
 51
0
  0
LINE
  5
D16
330
A02
100
AcDbEntity
  8
Shape2DView005
100
AcDbLine
 10
234.133
 20
163.913
 30
0
 11
234.133
 21
160.887
 31
0
  0
ARC
  5
D17
330
A02
100
AcDbEntity
  8
Shape2DView005
100
AcDbCircle
 10
234.257
 20
164.127
 30
0
 40
0.246667
100
AcDbArc
 50
30
 51
-120
  0
LINE
  5
D18
330
A02
100
AcDbEntity
  8
Shape2DView005
100
AcDbLine
 10
238.796
 20
164.25
 30
0
 11
234.47
 21
164.25
 31
0
  0
ARC
  5
D19
330
A02
100
AcDbEntity
  8
Shape2DView005
100
AcDbCircle
 10
239.01
 20
164.127
 30
0
 40
0.246667
100
AcDbArc
 50
-60
 51
150
  0
LINE
  5
D1A
330
A02
100
AcDbEntity
  8
Shape2DView005
100
AcDbLine
 10
239.133
 20
163.913
 30
0
 11
239.133
 21
160.887
 31
0
  0
ARC
  5
D1B
330
A02
100
AcDbEntity
  8
Shape2DView005
100
AcDbCircle
 10
239.01
 20
160.673
 30
0
 40
0.246667
100
AcDbArc
 50
-90
 51
60
  0
ARC
  5
D1C
330
A02
100
AcDbEntity
  8
Shape2DView005
100
AcDbCircle
 10
239.01
 20
160.673
 30
0
 40
0.246667
100
AcDbArc
 50
-150
 51
-90
  0
LINE
  5
D1D
330
A02
100
AcDbEntity
  8
Shape2DView005
100
AcDbLine
 10
238.796
 20
160.55
 30
0
 11
234.47
 21
160.55
 31
0
  0
ARC
  5
D1E
330
A02
100
AcDbEntity
  8
Shape2DView005
100
AcDbCircle
 10
234.257
 20
160.673
 30
0
 40
0.246667
100
AcDbArc
 50
-90
 51
-30
  0
ARC
  5
D1F
330
A02
100
AcDbEntity
  8
Shape2DView005
100
AcDbCircle
 10
234.257
 20
160.673
 30
0
 40
0.246667
100
AcDbArc
 50
120
 51
-90
  0
LINE
  5
D20
330
A02
100
AcDbEntity
  8
Shape2DView005
100
AcDbLine
 10
341.067
 20
163.913
 30
0
 11
341.067
 21
160.887
 31
0
  0
ARC
  5
D21
330
A02
100
AcDbEntity
  8
Shape2DView005
100
AcDbCircle
 10
341.19
 20
164.127
 30
0
 40
0.246667
100
AcDbArc
 50
30
 51
-120
  0
LINE
  5
D22
330
A02
100
AcDbEntity
  8
Shape2DView005
100
AcDbLine
 10
345.73
 20
164.25
 30
0
 11
341.404
 21
164.25
 31
0
  0
ARC
  5
D23
330
A02
100
AcDbEntity
  8
Shape2DView005
100
AcDbCircle
 10
345.943
 20
164.127
 30
0
 40
0.246667
100
AcDbArc
 50
-60
 51
150
  0
LINE
  5
D24
330
A02
100
AcDbEntity
  8
Shape2DView005
100
AcDbLine
 10
346.067
 20
163.913
 30
0
 11
346.067
 21
160.887
 31
0
  0
ARC
  5
D25
330
A02
100
AcDbEntity
  8
Shape2DView005
100
AcDbCircle
 10
345.943
 20
160.673
 30
0
 40
0.246667
100
AcDbArc
 50
-90
 51
60
  0
ARC
  5
D26
330
A02
100
AcDbEntity
  8
Shape2DView005
100
AcDbCircle
 10
345.943
 20
160.673
 30
0
 40
0.246667
100
AcDbArc
 50
-150
 51
-90
  0
LINE
  5
D27
330
A02
100
AcDbEntity
  8
Shape2DView005
100
AcDbLine
 10
345.73
 20
160.55
 30
0
 11
341.404
 21
160.55
 31
0
  0
ARC
  5
D28
330
A02
100
AcDbEntity
  8
Shape2DView005
100
AcDbCircle
 10
341.19
 20
160.673
 30
0
 40
0.246667
100
AcDbArc
 50
-90
 51
-30
  0
ARC
  5
D29
330
A02
100
AcDbEntity
  8
Shape2DView005
100
AcDbCircle
 10
341.19
 20
160.673
 30
0
 40
0.246667
100
AcDbArc
 50
120
 51
-90
  0
LINE
  5
D2A
330
A02
100
AcDbEntity
  8
Shape2DView005
100
AcDbLine
 10
287.6
 20
163.913
 30
0
 11
287.6
 21
160.887
 31
0
  0
ARC
  5
D2B
330
A02
100
AcDbEntity
  8
Shape2DView005
100
AcDbCircle
 10
287.723
 20
164.127
 30
0
 40
0.246667
100
AcDbArc
 50
30
 51
-120
  0
LINE
  5
D2C
330
A02
100
AcDbEntity
  8
Shape2DView005
100
AcDbLine
 10
292.263
 20
164.25
 30
0
 11
287.937
 21
164.25
 31
0
  0
ARC
  5
D2D
330
A02
100
AcDbEntity
  8
Shape2DView005
100
AcDbCircle
 10
292.477
 20
164.127
 30
0
 40
0.246667
100
AcDbArc
 50
-60
 51
150
  0
LINE
  5
D2E
330
A02
100
AcDbEntity
  8
Shape2DView005
100
AcDbLine
 10
292.6
 20
163.913
 30
0
 11
292.6
 21
160.887
 31
0
  0
ARC
  5
D2F
330
A02
100
AcDbEntity
  8
Shape2DView005
100
AcDbCircle
 10
292.477
 20
160.673
 30
0
 40
0.246667
100
AcDbArc
 50
-90
 51
60
  0
ARC
  5
D30
330
A02
100
AcDbEntity
  8
Shape2DView005
100
AcDbCircle
 10
292.477
 20
160.673
 30
0
 40
0.246667
100
AcDbArc
 50
-150
 51
-90
  0
LINE
  5
D31
330
A02
100
AcDbEntity
  8
Shape2DView005
100
AcDbLine
 10
292.263
 20
160.55
 30
0
 11
287.937
 21
160.55
 31
0
  0
ARC
  5
D32
330
A02
100
AcDbEntity
  8
Shape2DView005
100
AcDbCircle
 10
287.723
 20
160.673
 30
0
 40
0.246667
100
AcDbArc
 50
-90
 51
-30
  0
ARC
  5
D33
330
A02
100
AcDbEntity
  8
Shape2DView005
100
AcDbCircle
 10
287.723
 20
160.673
 30
0
 40
0.246667
100
AcDbArc
 50
120
 51
-90
  0
LINE
  5
D34
330
A02
100
AcDbEntity
  8
Shape2DView006
100
AcDbLine
 10
0
 20
300.8
 30
0
 11
0
 21
308.8
 31
0
  0
LINE
  5
D35
330
A02
100
AcDbEntity
  8
Shape2DView006
100
AcDbLine
 10
0
 20
308.8
 30
0
 11
5.515
 21
308.8
 31
0
  0
LINE
  5
D36
330
A02
100
AcDbEntity
  8
Shape2DView006
100
AcDbLine
 10
0
 20
300.8
 30
0
 11
5.515
 21
300.8
 31
0
  0
LINE
  5
D37
330
A02
100
AcDbEntity
  8
Shape2DView006
100
AcDbLine
 10
5.515
 20
308.8
 30
0
 11
5.515
 21
312.8
 31
0
  0
LINE
  5
D38
330
A02
100
AcDbEntity
  8
Shape2DView006
100
AcDbLine
 10
5.515
 20
300.8
 30
0
 11
5.515
 21
296.8
 31
0
  0
LINE
  5
D39
330
A02
100
AcDbEntity
  8
Shape2DView006
100
AcDbLine
 10
10.815
 20
296.8
 30
0
 11
5.515
 21
296.8
 31
0
  0
LINE
  5
D3A
330
A02
100
AcDbEntity
  8
Shape2DView006
100
AcDbLine
 10
10.815
 20
300.8
 30
0
 11
10.815
 21
296.8
 31
0
  0
LINE
  5
D3B
330
A02
100
AcDbEntity
  8
Shape2DView006
100
AcDbLine
 10
10.815
 20
300.8
 30
0
 11
12.815
 21
300.8
 31
0
  0
LINE
  5
D3C
330
A02
100
AcDbEntity
  8
Shape2DView006
100
AcDbLine
 10
12.815
 20
302.8
 30
0
 11
12.815
 21
300.8
 31
0
  0
LINE
  5
D3D
330
A02
100
AcDbEntity
  8
Shape2DView006
100
AcDbLine
 10
64.35
 20
302.8
 30
0
 11
12.815
 21
302.8
 31
0
  0
LINE
  5
D3E
330
A02
100
AcDbEntity
  8
Shape2DView006
100
AcDbLine
 10
64.35
 20
300.8
 30
0
 11
64.35
 21
302.8
 31
0
  0
LINE
  5
D3F
330
A02
100
AcDbEntity
  8
Shape2DView006
100
AcDbLine
 10
64.35
 20
300.8
 30
0
 11
66.35
 21
300.8
 31
0
  0
LINE
  5
D40
330
A02
100
AcDbEntity
  8
Shape2DView006
100
AcDbLine
 10
66.35
 20
300.8
 30
0
 11
66.35
 21
296.8
 31
0
  0
LINE
  5
D41
330
A02
100
AcDbEntity
  8
Shape2DView006
100
AcDbLine
 10
71.65
 20
296.8
 30
0
 11
66.35
 21
296.8
 31
0
  0
LINE
  5
D42
330
A02
100
AcDbEntity
  8
Shape2DView006
100
AcDbLine
 10
71.65
 20
300.8
 30
0
 11
71.65
 21
296.8
 31
0
  0
LINE
  5
D43
330
A02
100
AcDbEntity
  8
Shape2DView006
100
AcDbLine
 10
71.65
 20
300.8
 30
0
 11
73.65
 21
300.8
 31
0
  0
LINE
  5
D44
330
A02
100
AcDbEntity
  8
Shape2DView006
100
AcDbLine
 10
73.65
 20
302.8
 30
0
 11
73.65
 21
300.8
 31
0
  0
LINE
  5
D45
330
A02
100
AcDbEntity
  8
Shape2DView006
100
AcDbLine
 10
125.185
 20
302.8
 30
0
 11
73.65
 21
302.8
 31
0
  0
LINE
  5
D46
330
A02
100
AcDbEntity
  8
Shape2DView006
100
AcDbLine
 10
125.185
 20
300.8
 30
0
 11
125.185
 21
302.8
 31
0
  0
LINE
  5
D47
330
A02
100
AcDbEntity
  8
Shape2DView006
100
AcDbLine
 10
125.185
 20
300.8
 30
0
 11
127.185
 21
300.8
 31
0
  0
LINE
  5
D48
330
A02
100
AcDbEntity
  8
Shape2DView006
100
AcDbLine
 10
127.185
 20
300.8
 30
0
 11
127.185
 21
296.8
 31
0
  0
LINE
  5
D49
330
A02
100
AcDbEntity
  8
Shape2DView006
100
AcDbLine
 10
132.485
 20
296.8
 30
0
 11
127.185
 21
296.8
 31
0
  0
LINE
  5
D4A
330
A02
100
AcDbEntity
  8
Shape2DView006
100
AcDbLine
 10
132.485
 20
300.8
 30
0
 11
132.485
 21
296.8
 31
0
  0
LINE
  5
D4B
330
A02
100
AcDbEntity
  8
Shape2DView006
100
AcDbLine
 10
132.485
 20
300.8
 30
0
 11
138
 21
300.8
 31
0
  0
LINE
  5
D4C
330
A02
100
AcDbEntity
  8
Shape2DView006
100
AcDbLine
 10
138
 20
300.8
 30
0
 11
138
 21
308.8
 31
0
  0
LINE
  5
D4D
330
A02
100
AcDbEntity
  8
Shape2DView006
100
AcDbLine
 10
132.485
 20
308.8
 30
0
 11
138
 21
308.8
 31
0
  0
LINE
  5
D4E
330
A02
100
AcDbEntity
  8
Shape2DView006
100
AcDbLine
 10
132.485
 20
308.8
 30
0
 11
132.485
 21
312.8
 31
0
  0
LINE
  5
D4F
330
A02
100
AcDbEntity
  8
Shape2DView006
100
AcDbLine
 10
132.485
 20
312.8
 30
0
 11
127.185
 21
312.8
 31
0
  0
LINE
  5
D50
330
A02
100
AcDbEntity
  8
Shape2DView006
100
AcDbLine
 10
71.65
 20
308.8
 30
0
 11
127.185
 21
308.8
 31
0
  0
LINE
  5
D51
330
A02
100
AcDbEntity
  8
Shape2DView006
100
AcDbLine
 10
127.185
 20
308.8
 30
0
 11
127.185
 21
312.8
 31
0
  0
LINE
  5
D52
330
A02
100
AcDbEntity
  8
Shape2DView006
100
AcDbLine
 10
71.65
 20
308.8
 30
0
 11
71.65
 21
312.8
 31
0
  0
LINE
  5
D53
330
A02
100
AcDbEntity
  8
Shape2DView006
100
AcDbLine
 10
71.65
 20
312.8
 30
0
 11
66.35
 21
312.8
 31
0
  0
LINE
  5
D54
330
A02
100
AcDbEntity
  8
Shape2DView006
100
AcDbLine
 10
10.815
 20
308.8
 30
0
 11
66.35
 21
308.8
 31
0
  0
LINE
  5
D55
330
A02
100
AcDbEntity
  8
Shape2DView006
100
AcDbLine
 10
66.35
 20
308.8
 30
0
 11
66.35
 21
312.8
 31
0
  0
LINE
  5
D56
330
A02
100
AcDbEntity
  8
Shape2DView006
100
AcDbLine
 10
10.815
 20
308.8
 30
0
 11
10.815
 21
312.8
 31
0
  0
LINE
  5
D57
330
A02
100
AcDbEntity
  8
Shape2DView006
100
AcDbLine
 10
10.815
 20
312.8
 30
0
 11
5.515
 21
312.8
 31
0
  0
LINE
  5
D58
330
A02
100
AcDbEntity
  8
Shape2DView007
100
AcDbLine
 10
148
 20
300.8
 30
0
 11
148
 21
308.8
 31
0
  0
LINE
  5
D59
330
A02
100
AcDbEntity
  8
Shape2DView007
100
AcDbLine
 10
148
 20
308.8
 30
0
 11
153.515
 21
308.8
 31
0
  0
LINE
  5
D5A
330
A02
100
AcDbEntity
  8
Shape2DView007
100
AcDbLine
 10
148
 20
300.8
 30
0
 11
153.515
 21
300.8
 31
0
  0
LINE
  5
D5B
330
A02
100
AcDbEntity
  8
Shape2DView007
100
AcDbLine
 10
153.515
 20
308.8
 30
0
 11
153.515
 21
312.8
 31
0
  0
LINE
  5
D5C
330
A02
100
AcDbEntity
  8
Shape2DView007
100
AcDbLine
 10
153.515
 20
300.8
 30
0
 11
153.515
 21
296.8
 31
0
  0
LINE
  5
D5D
330
A02
100
AcDbEntity
  8
Shape2DView007
100
AcDbLine
 10
158.815
 20
296.8
 30
0
 11
153.515
 21
296.8
 31
0
  0
LINE
  5
D5E
330
A02
100
AcDbEntity
  8
Shape2DView007
100
AcDbLine
 10
158.815
 20
300.8
 30
0
 11
158.815
 21
296.8
 31
0
  0
LINE
  5
D5F
330
A02
100
AcDbEntity
  8
Shape2DView007
100
AcDbLine
 10
158.815
 20
300.8
 30
0
 11
160.815
 21
300.8
 31
0
  0
LINE
  5
D60
330
A02
100
AcDbEntity
  8
Shape2DView007
100
AcDbLine
 10
160.815
 20
300.8
 30
0
 11
160.815
 21
302.8
 31
0
  0
LINE
  5
D61
330
A02
100
AcDbEntity
  8
Shape2DView007
100
AcDbLine
 10
160.815
 20
302.8
 30
0
 11
212.35
 21
302.8
 31
0
  0
LINE
  5
D62
330
A02
100
AcDbEntity
  8
Shape2DView007
100
AcDbLine
 10
212.35
 20
302.8
 30
0
 11
212.35
 21
300.8
 31
0
  0
LINE
  5
D63
330
A02
100
AcDbEntity
  8
Shape2DView007
100
AcDbLine
 10
212.35
 20
300.8
 30
0
 11
214.35
 21
300.8
 31
0
  0
LINE
  5
D64
330
A02
100
AcDbEntity
  8
Shape2DView007
100
AcDbLine
 10
214.35
 20
300.8
 30
0
 11
214.35
 21
296.8
 31
0
  0
LINE
  5
D65
330
A02
100
AcDbEntity
  8
Shape2DView007
100
AcDbLine
 10
219.65
 20
296.8
 30
0
 11
214.35
 21
296.8
 31
0
  0
LINE
  5
D66
330
A02
100
AcDbEntity
  8
Shape2DView007
100
AcDbLine
 10
219.65
 20
300.8
 30
0
 11
219.65
 21
296.8
 31
0
  0
LINE
  5
D67
330
A02
100
AcDbEntity
  8
Shape2DView007
100
AcDbLine
 10
219.65
 20
300.8
 30
0
 11
221.65
 21
300.8
 31
0
  0
LINE
  5
D68
330
A02
100
AcDbEntity
  8
Shape2DView007
100
AcDbLine
 10
221.65
 20
300.8
 30
0
 11
221.65
 21
302.8
 31
0
  0
LINE
  5
D69
330
A02
100
AcDbEntity
  8
Shape2DView007
100
AcDbLine
 10
221.65
 20
302.8
 30
0
 11
273.185
 21
302.8
 31
0
  0
LINE
  5
D6A
330
A02
100
AcDbEntity
  8
Shape2DView007
100
AcDbLine
 10
273.185
 20
302.8
 30
0
 11
273.185
 21
300.8
 31
0
  0
LINE
  5
D6B
330
A02
100
AcDbEntity
  8
Shape2DView007
100
AcDbLine
 10
273.185
 20
300.8
 30
0
 11
275.185
 21
300.8
 31
0
  0
LINE
  5
D6C
330
A02
100
AcDbEntity
  8
Shape2DView007
100
AcDbLine
 10
275.185
 20
300.8
 30
0
 11
275.185
 21
296.8
 31
0
  0
LINE
  5
D6D
330
A02
100
AcDbEntity
  8
Shape2DView007
100
AcDbLine
 10
280.485
 20
296.8
 30
0
 11
275.185
 21
296.8
 31
0
  0
LINE
  5
D6E
330
A02
100
AcDbEntity
  8
Shape2DView007
100
AcDbLine
 10
280.485
 20
300.8
 30
0
 11
280.485
 21
296.8
 31
0
  0
LINE
  5
D6F
330
A02
100
AcDbEntity
  8
Shape2DView007
100
AcDbLine
 10
280.485
 20
300.8
 30
0
 11
286
 21
300.8
 31
0
  0
LINE
  5
D70
330
A02
100
AcDbEntity
  8
Shape2DView007
100
AcDbLine
 10
286
 20
300.8
 30
0
 11
286
 21
308.8
 31
0
  0
LINE
  5
D71
330
A02
100
AcDbEntity
  8
Shape2DView007
100
AcDbLine
 10
280.485
 20
308.8
 30
0
 11
286
 21
308.8
 31
0
  0
LINE
  5
D72
330
A02
100
AcDbEntity
  8
Shape2DView007
100
AcDbLine
 10
280.485
 20
308.8
 30
0
 11
280.485
 21
312.8
 31
0
  0
LINE
  5
D73
330
A02
100
AcDbEntity
  8
Shape2DView007
100
AcDbLine
 10
280.485
 20
312.8
 30
0
 11
275.185
 21
312.8
 31
0
  0
LINE
  5
D74
330
A02
100
AcDbEntity
  8
Shape2DView007
100
AcDbLine
 10
219.65
 20
308.8
 30
0
 11
275.185
 21
308.8
 31
0
  0
LINE
  5
D75
330
A02
100
AcDbEntity
  8
Shape2DView007
100
AcDbLine
 10
275.185
 20
308.8
 30
0
 11
275.185
 21
312.8
 31
0
  0
LINE
  5
D76
330
A02
100
AcDbEntity
  8
Shape2DView007
100
AcDbLine
 10
219.65
 20
308.8
 30
0
 11
219.65
 21
312.8
 31
0
  0
LINE
  5
D77
330
A02
100
AcDbEntity
  8
Shape2DView007
100
AcDbLine
 10
219.65
 20
312.8
 30
0
 11
214.35
 21
312.8
 31
0
  0
LINE
  5
D78
330
A02
100
AcDbEntity
  8
Shape2DView007
100
AcDbLine
 10
158.815
 20
308.8
 30
0
 11
214.35
 21
308.8
 31
0
  0
LINE
  5
D79
330
A02
100
AcDbEntity
  8
Shape2DView007
100
AcDbLine
 10
214.35
 20
308.8
 30
0
 11
214.35
 21
312.8
 31
0
  0
LINE
  5
D7A
330
A02
100
AcDbEntity
  8
Shape2DView007
100
AcDbLine
 10
158.815
 20
308.8
 30
0
 11
158.815
 21
312.8
 31
0
  0
LINE
  5
D7B
330
A02
100
AcDbEntity
  8
Shape2DView007
100
AcDbLine
 10
158.815
 20
312.8
 30
0
 11
153.515
 21
312.8
 31
0
  0
LINE
  5
D7C
330
A02
100
AcDbEntity
  8
Shape2DView008
100
AcDbLine
 10
300
 20
296.8
 30
0
 11
300
 21
299.475
 31
0
  0
LINE
  5
D7D
330
A02
100
AcDbEntity
  8
Shape2DView008
100
AcDbLine
 10
300
 20
296.8
 30
0
 11
308
 21
296.8
 31
0
  0
LINE
  5
D7E
330
A02
100
AcDbEntity
  8
Shape2DView008
100
AcDbLine
 10
308
 20
296.8
 30
0
 11
308
 21
299.475
 31
0
  0
LINE
  5
D7F
330
A02
100
AcDbEntity
  8
Shape2DView008
100
AcDbLine
 10
308
 20
299.475
 30
0
 11
312
 21
299.475
 31
0
  0
LINE
  5
D80
330
A02
100
AcDbEntity
  8
Shape2DView008
100
AcDbLine
 10
312
 20
299.475
 30
0
 11
312
 21
304.775
 31
0
  0
LINE
  5
D81
330
A02
100
AcDbEntity
  8
Shape2DView008
100
AcDbLine
 10
308
 20
304.775
 30
0
 11
308
 21
339.15
 31
0
  0
LINE
  5
D82
330
A02
100
AcDbEntity
  8
Shape2DView008
100
AcDbLine
 10
308
 20
304.775
 30
0
 11
312
 21
304.775
 31
0
  0
LINE
  5
D83
330
A02
100
AcDbEntity
  8
Shape2DView008
100
AcDbLine
 10
308
 20
339.15
 30
0
 11
312
 21
339.15
 31
0
  0
LINE
  5
D84
330
A02
100
AcDbEntity
  8
Shape2DView008
100
AcDbLine
 10
312
 20
339.15
 30
0
 11
312
 21
344.45
 31
0
  0
LINE
  5
D85
330
A02
100
AcDbEntity
  8
Shape2DView008
100
AcDbLine
 10
308
 20
344.45
 30
0
 11
308
 21
378.825
 31
0
  0
LINE
  5
D86
330
A02
100
AcDbEntity
  8
Shape2DView008
100
AcDbLine
 10
308
 20
344.45
 30
0
 11
312
 21
344.45
 31
0
  0
LINE
  5
D87
330
A02
100
AcDbEntity
  8
Shape2DView008
100
AcDbLine
 10
308
 20
378.825
 30
0
 11
312
 21
378.825
 31
0
  0
LINE
  5
D88
330
A02
100
AcDbEntity
  8
Shape2DView008
100
AcDbLine
 10
312
 20
378.825
 30
0
 11
312
 21
384.125
 31
0
  0
LINE
  5
D89
330
A02
100
AcDbEntity
  8
Shape2DView008
100
AcDbLine
 10
308
 20
384.125
 30
0
 11
308
 21
386.8
 31
0
  0
LINE
  5
D8A
330
A02
100
AcDbEntity
  8
Shape2DView008
100
AcDbLine
 10
300
 20
386.8
 30
0
 11
308
 21
386.8
 31
0
  0
LINE
  5
D8B
330
A02
100
AcDbEntity
  8
Shape2DView008
100
AcDbLine
 10
300
 20
384.125
 30
0
 11
300
 21
386.8
 31
0
  0
LINE
  5
D8C
330
A02
100
AcDbEntity
  8
Shape2DView008
100
AcDbLine
 10
308
 20
384.125
 30
0
 11
312
 21
384.125
 31
0
  0
LINE
  5
D8D
330
A02
100
AcDbEntity
  8
Shape2DView008
100
AcDbLine
 10
300
 20
384.125
 30
0
 11
296
 21
384.125
 31
0
  0
LINE
  5
D8E
330
A02
100
AcDbEntity
  8
Shape2DView008
100
AcDbLine
 10
296
 20
384.125
 30
0
 11
296
 21
378.825
 31
0
  0
LINE
  5
D8F
330
A02
100
AcDbEntity
  8
Shape2DView008
100
AcDbLine
 10
300
 20
376.825
 30
0
 11
300
 21
378.825
 31
0
  0
LINE
  5
D90
330
A02
100
AcDbEntity
  8
Shape2DView008
100
AcDbLine
 10
300
 20
376.825
 30
0
 11
302
 21
376.825
 31
0
  0
LINE
  5
D91
330
A02
100
AcDbEntity
  8
Shape2DView008
100
AcDbLine
 10
302
 20
376.825
 30
0
 11
302
 21
346.45
 31
0
  0
LINE
  5
D92
330
A02
100
AcDbEntity
  8
Shape2DView008
100
AcDbLine
 10
302
 20
346.45
 30
0
 11
300
 21
346.45
 31
0
  0
LINE
  5
D93
330
A02
100
AcDbEntity
  8
Shape2DView008
100
AcDbLine
 10
300
 20
344.45
 30
0
 11
300
 21
346.45
 31
0
  0
LINE
  5
D94
330
A02
100
AcDbEntity
  8
Shape2DView008
100
AcDbLine
 10
300
 20
378.825
 30
0
 11
296
 21
378.825
 31
0
  0
LINE
  5
D95
330
A02
100
AcDbEntity
  8
Shape2DView008
100
AcDbLine
 10
300
 20
344.45
 30
0
 11
296
 21
344.45
 31
0
  0
LINE
  5
D96
330
A02
100
AcDbEntity
  8
Shape2DView008
100
AcDbLine
 10
296
 20
344.45
 30
0
 11
296
 21
339.15
 31
0
  0
LINE
  5
D97
330
A02
100
AcDbEntity
  8
Shape2DView008
100
AcDbLine
 10
300
 20
337.15
 30
0
 11
300
 21
339.15
 31
0
  0
LINE
  5
D98
330
A02
100
AcDbEntity
  8
Shape2DView008
100
AcDbLine
 10
300
 20
337.15
 30
0
 11
302
 21
337.15
 31
0
  0
LINE
  5
D99
330
A02
100
AcDbEntity
  8
Shape2DView008
100
AcDbLine
 10
302
 20
337.15
 30
0
 11
302
 21
306.775
 31
0
  0
LINE
  5
D9A
330
A02
100
AcDbEntity
  8
Shape2DView008
100
AcDbLine
 10
302
 20
306.775
 30
0
 11
300
 21
306.775
 31
0
  0
LINE
  5
D9B
330
A02
100
AcDbEntity
  8
Shape2DView008
100
AcDbLine
 10
300
 20
304.775
 30
0
 11
300
 21
306.775
 31
0
  0
LINE
  5
D9C
330
A02
100
AcDbEntity
  8
Shape2DView008
100
AcDbLine
 10
300
 20
339.15
 30
0
 11
296
 21
339.15
 31
0
  0
LINE
  5
D9D
330
A02
100
AcDbEntity
  8
Shape2DView008
100
AcDbLine
 10
300
 20
304.775
 30
0
 11
296
 21
304.775
 31
0
  0
LINE
  5
D9E
330
A02
100
AcDbEntity
  8
Shape2DView008
100
AcDbLine
 10
300
 20
299.475
 30
0
 11
296
 21
299.475
 31
0
  0
LINE
  5
D9F
330
A02
100
AcDbEntity
  8
Shape2DView008
100
AcDbLine
 10
296
 20
304.775
 30
0
 11
296
 21
299.475
 31
0
  0
LINE
  5
DA0
330
A02
100
AcDbEntity
  8
Shape2DView009
100
AcDbLine
 10
4
 20
396.8
 30
0
 11
4
 21
399.475
 31
0
  0
LINE
  5
DA1
330
A02
100
AcDbEntity
  8
Shape2DView009
100
AcDbLine
 10
4
 20
396.8
 30
0
 11
12
 21
396.8
 31
0
  0
LINE
  5
DA2
330
A02
100
AcDbEntity
  8
Shape2DView009
100
AcDbLine
 10
12
 20
396.8
 30
0
 11
12
 21
399.475
 31
0
  0
LINE
  5
DA3
330
A02
100
AcDbEntity
  8
Shape2DView009
100
AcDbLine
 10
12
 20
399.475
 30
0
 11
16
 21
399.475
 31
0
  0
LINE
  5
DA4
330
A02
100
AcDbEntity
  8
Shape2DView009
100
AcDbLine
 10
16
 20
399.475
 30
0
 11
16
 21
404.775
 31
0
  0
LINE
  5
DA5
330
A02
100
AcDbEntity
  8
Shape2DView009
100
AcDbLine
 10
12
 20
404.775
 30
0
 11
12
 21
439.15
 31
0
  0
LINE
  5
DA6
330
A02
100
AcDbEntity
  8
Shape2DView009
100
AcDbLine
 10
12
 20
404.775
 30
0
 11
16
 21
404.775
 31
0
  0
LINE
  5
DA7
330
A02
100
AcDbEntity
  8
Shape2DView009
100
AcDbLine
 10
12
 20
439.15
 30
0
 11
16
 21
439.15
 31
0
  0
LINE
  5
DA8
330
A02
100
AcDbEntity
  8
Shape2DView009
100
AcDbLine
 10
16
 20
439.15
 30
0
 11
16
 21
444.45
 31
0
  0
LINE
  5
DA9
330
A02
100
AcDbEntity
  8
Shape2DView009
100
AcDbLine
 10
12
 20
444.45
 30
0
 11
12
 21
478.825
 31
0
  0
LINE
  5
DAA
330
A02
100
AcDbEntity
  8
Shape2DView009
100
AcDbLine
 10
12
 20
444.45
 30
0
 11
16
 21
444.45
 31
0
  0
LINE
  5
DAB
330
A02
100
AcDbEntity
  8
Shape2DView009
100
AcDbLine
 10
12
 20
478.825
 30
0
 11
16
 21
478.825
 31
0
  0
LINE
  5
DAC
330
A02
100
AcDbEntity
  8
Shape2DView009
100
AcDbLine
 10
16
 20
478.825
 30
0
 11
16
 21
484.125
 31
0
  0
LINE
  5
DAD
330
A02
100
AcDbEntity
  8
Shape2DView009
100
AcDbLine
 10
12
 20
484.125
 30
0
 11
12
 21
486.8
 31
0
  0
LINE
  5
DAE
330
A02
100
AcDbEntity
  8
Shape2DView009
100
AcDbLine
 10
4
 20
486.8
 30
0
 11
12
 21
486.8
 31
0
  0
LINE
  5
DAF
330
A02
100
AcDbEntity
  8
Shape2DView009
100
AcDbLine
 10
4
 20
484.125
 30
0
 11
4
 21
486.8
 31
0
  0
LINE
  5
DB0
330
A02
100
AcDbEntity
  8
Shape2DView009
100
AcDbLine
 10
12
 20
484.125
 30
0
 11
16
 21
484.125
 31
0
  0
LINE
  5
DB1
330
A02
100
AcDbEntity
  8
Shape2DView009
100
AcDbLine
 10
4
 20
484.125
 30
0
 11
0
 21
484.125
 31
0
  0
LINE
  5
DB2
330
A02
100
AcDbEntity
  8
Shape2DView009
100
AcDbLine
 10
8.88178e-16
 20
484.125
 30
0
 11
8.88178e-16
 21
478.825
 31
0
  0
LINE
  5
DB3
330
A02
100
AcDbEntity
  8
Shape2DView009
100
AcDbLine
 10
4
 20
476.825
 30
0
 11
4
 21
478.825
 31
0
  0
LINE
  5
DB4
330
A02
100
AcDbEntity
  8
Shape2DView009
100
AcDbLine
 10
6
 20
476.825
 30
0
 11
4
 21
476.825
 31
0
  0
LINE
  5
DB5
330
A02
100
AcDbEntity
  8
Shape2DView009
100
AcDbLine
 10
6
 20
446.45
 30
0
 11
6
 21
476.825
 31
0
  0
LINE
  5
DB6
330
A02
100
AcDbEntity
  8
Shape2DView009
100
AcDbLine
 10
4
 20
446.45
 30
0
 11
6
 21
446.45
 31
0
  0
LINE
  5
DB7
330
A02
100
AcDbEntity
  8
Shape2DView009
100
AcDbLine
 10
4
 20
444.45
 30
0
 11
4
 21
446.45
 31
0
  0
LINE
  5
DB8
330
A02
100
AcDbEntity
  8
Shape2DView009
100
AcDbLine
 10
4
 20
478.825
 30
0
 11
0
 21
478.825
 31
0
  0
LINE
  5
DB9
330
A02
100
AcDbEntity
  8
Shape2DView009
100
AcDbLine
 10
4
 20
444.45
 30
0
 11
0
 21
444.45
 31
0
  0
LINE
  5
DBA
330
A02
100
AcDbEntity
  8
Shape2DView009
100
AcDbLine
 10
8.88178e-16
 20
444.45
 30
0
 11
8.88178e-16
 21
439.15
 31
0
  0
LINE
  5
DBB
330
A02
100
AcDbEntity
  8
Shape2DView009
100
AcDbLine
 10
4
 20
437.15
 30
0
 11
4
 21
439.15
 31
0
  0
LINE
  5
DBC
330
A02
100
AcDbEntity
  8
Shape2DView009
100
AcDbLine
 10
6
 20
437.15
 30
0
 11
4
 21
437.15
 31
0
  0
LINE
  5
DBD
330
A02
100
AcDbEntity
  8
Shape2DView009
100
AcDbLine
 10
6
 20
406.775
 30
0
 11
6
 21
437.15
 31
0
  0
LINE
  5
DBE
330
A02
100
AcDbEntity
  8
Shape2DView009
100
AcDbLine
 10
4
 20
406.775
 30
0
 11
6
 21
406.775
 31
0
  0
LINE
  5
DBF
330
A02
100
AcDbEntity
  8
Shape2DView009
100
AcDbLine
 10
4
 20
404.775
 30
0
 11
4
 21
406.775
 31
0
  0
LINE
  5
DC0
330
A02
100
AcDbEntity
  8
Shape2DView009
100
AcDbLine
 10
4
 20
439.15
 30
0
 11
0
 21
439.15
 31
0
  0
LINE
  5
DC1
330
A02
100
AcDbEntity
  8
Shape2DView009
100
AcDbLine
 10
4
 20
404.775
 30
0
 11
0
 21
404.775
 31
0
  0
LINE
  5
DC2
330
A02
100
AcDbEntity
  8
Shape2DView009
100
AcDbLine
 10
4
 20
399.475
 30
0
 11
0
 21
399.475
 31
0
  0
LINE
  5
DC3
330
A02
100
AcDbEntity
  8
Shape2DView009
100
AcDbLine
 10
8.88178e-16
 20
404.775
 30
0
 11
8.88178e-16
 21
399.475
 31
0
  0
ENDSEC
  0
SECTION
  2
OBJECTS
  0
DICTIONARY
  5
F000
330
0
100
AcDbDictionary
  3
ACAD_GROUP
350
F001
  0
DICTIONARY
  5
F001
330
F000
100
AcDbDictionary
  0
ENDSEC
  0
EOF